  0
SECTION
  2
HEADER
  9
$ACADVER
  1
AC1015
  9
$ACADMAINTVER
 70
     6
  9
$DWGCODEPAGE
  3
ANSI_1254
  9
$INSBASE
 10
0.0
 20
0.0
 30
0.0
  9
$EXTMIN
 10
0.0
 20
0.0
 30
0.0
  9
$EXTMAX
 10
279.4
 20
215.9
 30
0.0
  9
$LIMMIN
 10
0.0
 20
0.0
  9
$LIMMAX
 10
279.4
 20
215.9
  9
$ORTHOMODE
 70
     0
  9
$REGENMODE
 70
     1
  9
$FILLMODE
 70
     1
  9
$QTEXTMODE
 70
     0
  9
$MIRRTEXT
 70
     1
  9
$LTSCALE
 40
1.0
  9
$ATTMODE
 70
     1
  9
$TEXTSIZE
 40
3.5
  9
$TRACEWID
 40
1.0
  9
$TEXTSTYLE
  7
Standard
  9
$CLAYER
  8
0
  9
$CELTYPE
  6
ByLayer
  9
$CECOLOR
 62
   256
  9
$CELTSCALE
 40
1.0
  9
$DISPSILH
 70
     0
  9
$DIMSCALE
 40
1.0
  9
$DIMASZ
 40
3.5
  9
$DIMEXO
 40
1.0
  9
$DIMDLI
 40
3.75
  9
$DIMRND
 40
0.0
  9
$DIMDLE
 40
0.0
  9
$DIMEXE
 40
1.0
  9
$DIMTP
 40
0.0
  9
$DIMTM
 40
0.0
  9
$DIMTXT
 40
3.5
  9
$DIMCEN
 40
2.5
  9
$DIMTSZ
 40
0.0
  9
$DIMTOL
 70
     0
  9
$DIMLIM
 70
     0
  9
$DIMTIH
 70
     1
  9
$DIMTOH
 70
     1
  9
$DIMSE1
 70
     0
  9
$DIMSE2
 70
     0
  9
$DIMTAD
 70
     1
  9
$DIMZIN
 70
     0
  9
$DIMBLK
  1

  9
$DIMASO
 70
     1
  9
$DIMSHO
 70
     1
  9
$DIMPOST
  1

  9
$DIMAPOST
  1

  9
$DIMALT
 70
     0
  9
$DIMALTD
 70
     3
  9
$DIMALTF
 40
0.0393700787
  9
$DIMLFAC
 40
1.0
  9
$DIMTOFL
 70
     1
  9
$DIMTVP
 40
0.0
  9
$DIMTIX
 70
     0
  9
$DIMSOXD
 70
     0
  9
$DIMSAH
 70
     0
  9
$DIMBLK1
  1

  9
$DIMBLK2
  1

  9
$DIMSTYLE
  2
ISO-25
  9
$DIMCLRD
 70
     0
  9
$DIMCLRE
 70
     0
  9
$DIMCLRT
 70
     0
  9
$DIMTFAC
 40
1.0
  9
$DIMGAP
 40
1.524
  9
$DIMJUST
 70
     0
  9
$DIMSD1
 70
     0
  9
$DIMSD2
 70
     0
  9
$DIMTOLJ
 70
     0
  9
$DIMTZIN
 70
     0
  9
$DIMALTZ
 70
     0
  9
$DIMALTTZ
 70
     0
  9
$DIMUPT
 70
     0
  9
$DIMDEC
 70
     2
  9
$DIMTDEC
 70
     2
  9
$DIMALTU
 70
     2
  9
$DIMALTTD
 70
     3
  9
$DIMTXSTY
  7
Standard
  9
$DIMAUNIT
 70
     0
  9
$DIMADEC
 70
     2
  9
$DIMALTRND
 40
0.0
  9
$DIMAZIN
 70
     0
  9
$DIMDSEP
 70
    44
  9
$DIMATFIT
 70
     3
  9
$DIMFRAC
 70
     0
  9
$DIMLDRBLK
  1

  9
$DIMLUNIT
 70
     2
  9
$DIMLWD
 70
    -2
  9
$DIMLWE
 70
    -2
  9
$DIMTMOVE
 70
     0
  9
$LUNITS
 70
     2
  9
$LUPREC
 70
     2
  9
$SKETCHINC
 40
1.0
  9
$FILLETRAD
 40
10.0
  9
$AUNITS
 70
     0
  9
$AUPREC
 70
     2
  9
$MENU
  1
.
  9
$ELEVATION
 40
0.0
  9
$PELEVATION
 40
0.0
  9
$THICKNESS
 40
0.0
  9
$LIMCHECK
 70
     0
  9
$CHAMFERA
 40
0.0
  9
$CHAMFERB
 40
0.0
  9
$CHAMFERC
 40
0.0
  9
$CHAMFERD
 40
0.0
  9
$SKPOLY
 70
     0
  9
$TDCREATE
 40
2459935.710546759
  9
$TDUCREATE
 40
2459935.585546759
  9
$TDUPDATE
 40
2459935.710546933
  9
$TDUUPDATE
 40
2459935.585546933
  9
$TDINDWG
 40
0.0000000116
  9
$TDUSRTIMER
 40
0.0000000116
  9
$USRTIMER
 70
     1
  9
$ANGBASE
 50
0.0
  9
$ANGDIR
 70
     0
  9
$PDMODE
 70
     0
  9
$PDSIZE
 40
-1.0
  9
$PLINEWID
 40
0.0
  9
$SPLFRAME
 70
     0
  9
$SPLINETYPE
 70
     6
  9
$SPLINESEGS
 70
     8
  9
$HANDSEED
  5
12A
  9
$SURFTAB1
 70
     6
  9
$SURFTAB2
 70
     6
  9
$SURFTYPE
 70
     6
  9
$SURFU
 70
     6
  9
$SURFV
 70
     6
  9
$UCSBASE
  2

  9
$UCSNAME
  2

  9
$UCSORG
 10
0.0
 20
0.0
 30
0.0
  9
$UCSXDIR
 10
1.0
 20
0.0
 30
0.0
  9
$UCSYDIR
 10
0.0
 20
1.0
 30
0.0
  9
$UCSORTHOREF
  2

  9
$UCSORTHOVIEW
 70
     0
  9
$UCSORGTOP
 10
0.0
 20
0.0
 30
0.0
  9
$UCSORGBOTTOM
 10
0.0
 20
0.0
 30
0.0
  9
$UCSORGLEFT
 10
0.0
 20
0.0
 30
0.0
  9
$UCSORGRIGHT
 10
0.0
 20
0.0
 30
0.0
  9
$UCSORGFRONT
 10
0.0
 20
0.0
 30
0.0
  9
$UCSORGBACK
 10
0.0
 20
0.0
 30
0.0
  9
$PUCSBASE
  2

  9
$PUCSNAME
  2

  9
$PUCSORG
 10
0.0
 20
0.0
 30
0.0
  9
$PUCSXDIR
 10
1.0
 20
0.0
 30
0.0
  9
$PUCSYDIR
 10
0.0
 20
1.0
 30
0.0
  9
$PUCSORTHOREF
  2

  9
$PUCSORTHOVIEW
 70
     0
  9
$PUCSORGTOP
 10
0.0
 20
0.0
 30
0.0
  9
$PUCSORGBOTTOM
 10
0.0
 20
0.0
 30
0.0
  9
$PUCSORGLEFT
 10
0.0
 20
0.0
 30
0.0
  9
$PUCSORGRIGHT
 10
0.0
 20
0.0
 30
0.0
  9
$PUCSORGFRONT
 10
0.0
 20
0.0
 30
0.0
  9
$PUCSORGBACK
 10
0.0
 20
0.0
 30
0.0
  9
$USERI1
 70
     0
  9
$USERI2
 70
     0
  9
$USERI3
 70
     0
  9
$USERI4
 70
     0
  9
$USERI5
 70
     0
  9
$USERR1
 40
0.0
  9
$USERR2
 40
0.0
  9
$USERR3
 40
0.0
  9
$USERR4
 40
0.0
  9
$USERR5
 40
0.0
  9
$WORLDVIEW
 70
     1
  9
$SHADEDGE
 70
     3
  9
$SHADEDIF
 70
    70
  9
$TILEMODE
 70
     1
  9
$MAXACTVP
 70
    64
  9
$PINSBASE
 10
0.0
 20
0.0
 30
0.0
  9
$PLIMCHECK
 70
     0
  9
$PEXTMIN
 10
1.0000000000E+20
 20
1.0000000000E+20
 30
1.0000000000E+20
  9
$PEXTMAX
 10
-1.0000000000E+20
 20
-1.0000000000E+20
 30
-1.0000000000E+20
  9
$PLIMMIN
 10
0.0
 20
0.0
  9
$PLIMMAX
 10
420.0
 20
297.0
  9
$UNITMODE
 70
     0
  9
$VISRETAIN
 70
     1
  9
$PLINEGEN
 70
     0
  9
$PSLTSCALE
 70
     1
  9
$TREEDEPTH
 70
  3020
  9
$CMLSTYLE
  2
Standard
  9
$CMLJUST
 70
     0
  9
$CMLSCALE
 40
20.0
  9
$PROXYGRAPHICS
 70
     1
  9
$MEASUREMENT
 70
     1
  9
$CELWEIGHT
370
    -1
  9
$ENDCAPS
280
     0
  9
$JOINSTYLE
280
     0
  9
$LWDISPLAY
290
     1
  9
$INSUNITS
 70
     4
  9
$HYPERLINKBASE
  1

  9
$STYLESHEET
  1

  9
$XEDIT
290
     1
  9
$CEPSNTYPE
380
     0
  9
$PSTYLEMODE
290
     1
  9
$FINGERPRINTGUID
  2
{082d44d7-de33-4fbb-b55d-bffb093e5b2f}
  9
$VERSIONGUID
  2
{FAEB1C32-E019-11D5-929B-00C0DF256EC4}
  9
$EXTNAMES
290
     1
  9
$PSVPSCALE
 40
0.0
  9
$OLESTARTUP
290
     0
  0
ENDSEC
  0
SECTION
  2
CLASSES
  0
CLASS
  1
ACDBDICTIONARYWDFLT
  2
AcDbDictionaryWithDefault
  3
ObjectDBX Classes
 90
        0
280
     0
281
     0
  0
CLASS
  1
VISUALSTYLE
  2
AcDbVisualStyle
  3
ObjectDBX Classes
 90
     4095
280
     0
281
     0
  0
CLASS
  1
MATERIAL
  2
AcDbMaterial
  3
ObjectDBX Classes
 90
     1153
280
     0
281
     0
  0
CLASS
  1
SCALE
  2
AcDbScale
  3
ObjectDBX Classes
 90
     1153
280
     0
281
     0
  0
CLASS
  1
TABLESTYLE
  2
AcDbTableStyle
  3
ObjectDBX Classes
 90
     4095
280
     0
281
     0
  0
CLASS
  1
MLEADERSTYLE
  2
AcDbMLeaderStyle
  3
ACDB_MLEADERSTYLE_CLASS
 90
     4095
280
     0
281
     0
  0
CLASS
  1
SUN
  2
AcDbSun
  3
SCENEOE
 90
     1153
280
     0
281
     0
  0
CLASS
  1
ACDBPLACEHOLDER
  2
AcDbPlaceHolder
  3
ObjectDBX Classes
 90
        0
280
     0
281
     0
  0
CLASS
  1
LAYOUT
  2
AcDbLayout
  3
ObjectDBX Classes
 90
        0
280
     0
281
     0
  0
ENDSEC
  0
SECTION
  2
TABLES
  0
TABLE
  2
VPORT
  5
8
330
0
100
AcDbSymbolTable
 70
     1
  0
VPORT
  5
29
330
8
100
AcDbSymbolTableRecord
100
AcDbViewportTableRecord
  2
*Active
 70
     0
 10
0.0
 20
0.0
 11
1.0
 21
1.0
 12
139.7
 22
107.95
 13
0.0
 23
0.0
 14
10.0
 24
10.0
 15
10.0
 25
10.0
 16
0.0
 26
0.0
 36
1.0
 17
0.0
 27
0.0
 37
0.0
 40
215.9
 41
1.2941176471
 42
50.0
 43
0.0
 44
0.0
 50
0.0
 51
0.0
 71
     0
 72
  2000
 73
     1
 74
     3
 75
     0
 76
     0
 77
     0
 78
     0
281
     0
 65
     1
110
0.0
120
0.0
130
0.0
111
1.0
121
0.0
131
0.0
112
0.0
122
1.0
132
0.0
 79
     0
146
0.0
  0
ENDTAB
  0
TABLE
  2
LTYPE
  5
5
330
0
100
AcDbSymbolTable
 70
     6
  0
LTYPE
  5
14
330
5
100
AcDbSymbolTableRecord
100
AcDbLinetypeTableRecord
  2
ByBlock
 70
     0
  3

 72
    65
 73
     0
 40
0.0
  0
LTYPE
  5
15
330
5
100
AcDbSymbolTableRecord
100
AcDbLinetypeTableRecord
  2
ByLayer
 70
     0
  3

 72
    65
 73
     0
 40
0.0
  0
LTYPE
  5
16
330
5
100
AcDbSymbolTableRecord
100
AcDbLinetypeTableRecord
  2
Continuous
 70
     0
  3
Solid line
 72
    65
 73
     0
 40
0.0
  0
LTYPE
  5
6E
330
5
100
AcDbSymbolTableRecord
100
AcDbLinetypeTableRecord
  2
HIDDEN
 70
     0
  3
Hidden __ __ __ __ __ __ __ __ __ __ __ __ __ __
 72
    65
 73
     2
 40
1.905
 49
1.27
 74
     0
 49
-0.635
 74
     0
  0
LTYPE
  5
6F
330
5
100
AcDbSymbolTableRecord
100
AcDbLinetypeTableRecord
  2
PHANTOM
 70
     0
  3
Phantom ______  __  __  ______  __  __  ______
 72
    65
 73
     6
 40
12.7
 49
6.35
 74
     0
 49
-1.27
 74
     0
 49
1.27
 74
     0
 49
-1.27
 74
     0
 49
1.27
 74
     0
 49
-1.27
 74
     0
  0
LTYPE
  5
70
330
5
100
AcDbSymbolTableRecord
100
AcDbLinetypeTableRecord
  2
CENTER
 70
     0
  3
Center ____ _ ____ _ ____ _ ____ _ ____ _ ____
 72
    65
 73
     4
 40
10.16
 49
6.35
 74
     0
 49
-1.27
 74
     0
 49
1.27
 74
     0
 49
-1.27
 74
     0
  0
LTYPE
  5
71
330
5
100
AcDbSymbolTableRecord
100
AcDbLinetypeTableRecord
  2
CENTERX2
 70
     0
  3
Center (2x) ________  __  ________  __  _____
 72
    65
 73
     4
 40
20.32
 49
12.7
 74
     0
 49
-2.54
 74
     0
 49
2.54
 74
     0
 49
-2.54
 74
     0
  0
LTYPE
  5
72
330
5
100
AcDbSymbolTableRecord
100
AcDbLinetypeTableRecord
  2
DOT2
 70
     0
  3
Dot (.5x) ........................................
 72
    65
 73
     2
 40
0.635
 49
0.0
 74
     0
 49
-0.635
 74
     0
  0
ENDTAB
  0
TABLE
  2
LAYER
  5
2
330
0
100
AcDbSymbolTable
 70
    17
  0
LAYER
  5
10
330
2
100
AcDbSymbolTableRecord
100
AcDbLayerTableRecord
  2
0
 70
     0
 62
     7
  6
Continuous
370
    -3
390
F
  0
LAYER
  5
73
330
2
100
AcDbSymbolTableRecord
100
AcDbLayerTableRecord
  2
FORMAT
 70
     0
 62
     7
  6
Continuous
370
    -3
390
F
  0
LAYER
  5
74
330
2
100
AcDbSymbolTableRecord
100
AcDbLayerTableRecord
  2
YARDIMCI_GEOMETRI
 70
     0
 62
    -6
  6
Continuous
290
     0
370
    -3
390
F
  0
LAYER
  5
75
330
2
100
AcDbSymbolTableRecord
100
AcDbLayerTableRecord
  2
SAYFA_CERCEVESI
 70
     0
 62
     7
  6
Continuous
370
    25
390
F
  0
LAYER
  5
76
330
2
100
AcDbSymbolTableRecord
100
AcDbLayerTableRecord
  2
ANTET
 70
     0
 62
     7
  6
Continuous
370
    -3
390
F
  0
LAYER
  5
77
330
2
100
AcDbSymbolTableRecord
100
AcDbLayerTableRecord
  2
OLCU
 70
     0
 62
   150
  6
Continuous
370
    -3
390
F
  0
LAYER
  5
78
330
2
100
AcDbSymbolTableRecord
100
AcDbLayerTableRecord
  2
METIN
 70
     0
 62
    96
  6
Continuous
370
    -3
390
F
  0
LAYER
  5
79
330
2
100
AcDbSymbolTableRecord
100
AcDbLayerTableRecord
  2
BALON
 70
     0
 62
     5
  6
Continuous
370
    -3
390
F
  0
LAYER
  5
7A
330
2
100
AcDbSymbolTableRecord
100
AcDbLayerTableRecord
  2
VURGU
 70
     0
 62
     7
  6
Continuous
370
    -3
390
F
  0
LAYER
  5
7B
330
2
100
AcDbSymbolTableRecord
100
AcDbLayerTableRecord
  2
SILIK
 70
     0
 62
     7
  6
Continuous
370
    -3
390
F
  0
LAYER
  5
7C
330
2
100
AcDbSymbolTableRecord
100
AcDbLayerTableRecord
  2
MODEL
 70
     0
 62
     7
  6
Continuous
370
    -3
390
F
  0
LAYER
  5
7D
330
2
100
AcDbSymbolTableRecord
100
AcDbLayerTableRecord
  2
DETAYLANDıRMA
 70
     0
 62
   190
  6
Continuous
370
    -3
390
F
  0
LAYER
  5
7E
330
2
100
AcDbSymbolTableRecord
100
AcDbLayerTableRecord
  2
TOLERANS
 70
     0
 62
   230
  6
Continuous
370
    -3
390
F
  0
LAYER
  5
7F
330
2
100
AcDbSymbolTableRecord
100
AcDbLayerTableRecord
  2
MERKEZ_CIZGILERI
 70
     0
 62
    30
  6
Continuous
370
    -3
390
F
  0
LAYER
  5
80
330
2
100
AcDbSymbolTableRecord
100
AcDbLayerTableRecord
  2
KESIT-DETAY_CIZGILERI
 70
     0
 62
     7
  6
Continuous
370
    -3
390
F
  0
LAYER
  5
81
330
2
100
AcDbSymbolTableRecord
100
AcDbLayerTableRecord
  2
\U+041E\U+0421\U+0415\U+0412\U+042B\U+0415
 70
     0
 62
     7
  6
Continuous
370
    -3
390
F
  0
LAYER
  5
82
330
2
100
AcDbSymbolTableRecord
100
AcDbLayerTableRecord
  2
\U+0412\U+041E\U+0414\U+042F\U+041D\U+042B\U+0415_\U+0417\U+041D\U+0410\U+041A\U+0418
 70
     0
 62
    11
  6
Continuous
370
    -3
390
F
  0
ENDTAB
  0
TABLE
  2
STYLE
  5
3
330
0
100
AcDbSymbolTable
 70
     1
  0
STYLE
  5
11
330
3
100
AcDbSymbolTableRecord
100
AcDbTextStyleTableRecord
  2
Standard
 70
     0
 40
0.0
 41
1.0
 50
0.0
 71
     0
 42
3.5
  3
txt
  4

  0
ENDTAB
  0
TABLE
  2
VIEW
  5
6
330
0
100
AcDbSymbolTable
 70
     0
  0
ENDTAB
  0
TABLE
  2
UCS
  5
7
330
0
100
AcDbSymbolTable
 70
     0
  0
ENDTAB
  0
TABLE
  2
APPID
  5
9
330
0
100
AcDbSymbolTable
 70
     1
  0
APPID
  5
12
330
9
100
AcDbSymbolTableRecord
100
AcDbRegAppTableRecord
  2
ACAD
 70
     0
  0
ENDTAB
  0
TABLE
  2
DIMSTYLE
  5
A
330
0
100
AcDbSymbolTable
 70
     1
100
AcDbDimStyleTable
  0
DIMSTYLE
105
27
330
A
100
AcDbSymbolTableRecord
100
AcDbDimStyleTableRecord
  2
ISO-25
 70
     0
 41
2.5
 42
0.625
 43
3.75
 44
1.25
 73
     0
 74
     0
 77
     1
 78
     8
140
2.5
141
2.5
143
0.0393700787
147
0.625
171
     3
172
     1
178
     0
271
     2
272
     2
274
     3
278
    44
283
     0
284
     8
340
11
  0
ENDTAB
  0
TABLE
  2
BLOCK_RECORD
  5
1
330
0
100
AcDbSymbolTable
 70
     4
  0
BLOCK_RECORD
  5
1F
330
1
100
AcDbSymbolTableRecord
100
AcDbBlockTableRecord
  2
*Model_Space
340
22
  0
BLOCK_RECORD
  5
1B
330
1
100
AcDbSymbolTableRecord
100
AcDbBlockTableRecord
  2
*Paper_Space
340
1E
  0
BLOCK_RECORD
  5
23
330
1
100
AcDbSymbolTableRecord
100
AcDbBlockTableRecord
  2
*Paper_Space0
340
26
  0
BLOCK_RECORD
  5
93
330
1
100
AcDbSymbolTableRecord
100
AcDbBlockTableRecord
  2
SW_CENTERMARKSYMBOL_0
340
0
102
{BLKREFS
331
9E
102
}
  0
BLOCK_RECORD
  5
E9
330
1
100
AcDbSymbolTableRecord
100
AcDbBlockTableRecord
  2
SW_CENTERMARKSYMBOL_1
340
0
102
{BLKREFS
331
F4
102
}
  0
BLOCK_RECORD
  5
F5
330
1
100
AcDbSymbolTableRecord
100
AcDbBlockTableRecord
  2
SW_CENTERMARKSYMBOL_2
340
0
102
{BLKREFS
331
100
102
}
  0
ENDTAB
  0
ENDSEC
  0
SECTION
  2
BLOCKS
  0
BLOCK
  5
20
330
1F
100
AcDbEntity
  8
0
100
AcDbBlockBegin
  2
*Model_Space
 70
     0
 10
0.0
 20
0.0
 30
0.0
  3
*Model_Space
  1

  0
ENDBLK
  5
21
330
1F
100
AcDbEntity
  8
0
100
AcDbBlockEnd
  0
BLOCK
  5
1C
330
1B
100
AcDbEntity
 67
     1
  8
0
100
AcDbBlockBegin
  2
*Paper_Space
 70
     0
 10
0.0
 20
0.0
 30
0.0
  3
*Paper_Space
  1

  0
ENDBLK
  5
1D
330
1B
100
AcDbEntity
 67
     1
  8
0
100
AcDbBlockEnd
  0
BLOCK
  5
24
330
23
100
AcDbEntity
  8
0
100
AcDbBlockBegin
  2
*Paper_Space0
 70
     0
 10
0.0
 20
0.0
 30
0.0
  3
*Paper_Space0
  1

  0
ENDBLK
  5
25
330
23
100
AcDbEntity
  8
0
100
AcDbBlockEnd
  0
BLOCK
  5
94
330
93
100
AcDbEntity
  8
0
100
AcDbBlockBegin
  2
SW_CENTERMARKSYMBOL_0
 70
     0
 10
0.0
 20
0.0
 30
0.0
  3
SW_CENTERMARKSYMBOL_0
  1

  0
LINE
  5
96
330
93
100
AcDbEntity
  8
FORMAT
 62
     0
100
AcDbLine
 10
0.0
 20
0.0
 30
0.0
 11
0.0
 21
2.5
 31
0.0
  0
LINE
  5
97
330
93
100
AcDbEntity
  8
FORMAT
 62
     0
100
AcDbLine
 10
0.0
 20
0.0
 30
0.0
 11
-2.5
 21
0.0
 31
0.0
  0
LINE
  5
98
330
93
100
AcDbEntity
  8
FORMAT
 62
     0
100
AcDbLine
 10
0.0
 20
0.0
 30
0.0
 11
0.0
 21
-2.5
 31
0.0
  0
LINE
  5
99
330
93
100
AcDbEntity
  8
FORMAT
 62
     0
100
AcDbLine
 10
0.0
 20
0.0
 30
0.0
 11
2.5
 21
0.0
 31
0.0
  0
LINE
  5
9A
330
93
100
AcDbEntity
  8
FORMAT
 62
     0
100
AcDbLine
 10
0.0
 20
5.0
 30
0.0
 11
0.0
 21
502.5
 31
0.0
  0
LINE
  5
9B
330
93
100
AcDbEntity
  8
FORMAT
 62
     0
100
AcDbLine
 10
-5.0
 20
0.0
 30
0.0
 11
-502.5
 21
0.0
 31
0.0
  0
LINE
  5
9C
330
93
100
AcDbEntity
  8
FORMAT
 62
     0
100
AcDbLine
 10
0.0
 20
-5.0
 30
0.0
 11
0.0
 21
-502.5
 31
0.0
  0
LINE
  5
9D
330
93
100
AcDbEntity
  8
FORMAT
 62
     0
100
AcDbLine
 10
5.0
 20
0.0
 30
0.0
 11
502.5
 21
0.0
 31
0.0
  0
ENDBLK
  5
95
330
93
100
AcDbEntity
  8
0
100
AcDbBlockEnd
  0
BLOCK
  5
EA
330
E9
100
AcDbEntity
  8
0
100
AcDbBlockBegin
  2
SW_CENTERMARKSYMBOL_1
 70
     0
 10
0.0
 20
0.0
 30
0.0
  3
SW_CENTERMARKSYMBOL_1
  1

  0
LINE
  5
EC
330
E9
100
AcDbEntity
  8
FORMAT
 62
     0
100
AcDbLine
 10
0.0
 20
0.0
 30
0.0
 11
0.0
 21
2.5
 31
0.0
  0
LINE
  5
ED
330
E9
100
AcDbEntity
  8
FORMAT
 62
     0
100
AcDbLine
 10
0.0
 20
0.0
 30
0.0
 11
-2.5
 21
0.0
 31
0.0
  0
LINE
  5
EE
330
E9
100
AcDbEntity
  8
FORMAT
 62
     0
100
AcDbLine
 10
0.0
 20
0.0
 30
0.0
 11
0.0
 21
-2.5
 31
0.0
  0
LINE
  5
EF
330
E9
100
AcDbEntity
  8
FORMAT
 62
     0
100
AcDbLine
 10
0.0
 20
0.0
 30
0.0
 11
2.5
 21
0.0
 31
0.0
  0
LINE
  5
F0
330
E9
100
AcDbEntity
  8
FORMAT
 62
     0
100
AcDbLine
 10
0.0
 20
5.0
 30
0.0
 11
0.0
 21
9.5
 31
0.0
  0
LINE
  5
F1
330
E9
100
AcDbEntity
  8
FORMAT
 62
     0
100
AcDbLine
 10
-5.0
 20
0.0
 30
0.0
 11
-9.5
 21
0.0
 31
0.0
  0
LINE
  5
F2
330
E9
100
AcDbEntity
  8
FORMAT
 62
     0
100
AcDbLine
 10
0.0
 20
-5.0
 30
0.0
 11
0.0
 21
-9.5
 31
0.0
  0
LINE
  5
F3
330
E9
100
AcDbEntity
  8
FORMAT
 62
     0
100
AcDbLine
 10
5.0
 20
0.0
 30
0.0
 11
9.5
 21
0.0
 31
0.0
  0
ENDBLK
  5
EB
330
E9
100
AcDbEntity
  8
0
100
AcDbBlockEnd
  0
BLOCK
  5
F6
330
F5
100
AcDbEntity
  8
0
100
AcDbBlockBegin
  2
SW_CENTERMARKSYMBOL_2
 70
     0
 10
0.0
 20
0.0
 30
0.0
  3
SW_CENTERMARKSYMBOL_2
  1

  0
LINE
  5
F8
330
F5
100
AcDbEntity
  8
FORMAT
 62
     0
100
AcDbLine
 10
0.0
 20
0.0
 30
0.0
 11
0.0
 21
2.5
 31
0.0
  0
LINE
  5
F9
330
F5
100
AcDbEntity
  8
FORMAT
 62
     0
100
AcDbLine
 10
0.0
 20
0.0
 30
0.0
 11
-2.5
 21
0.0
 31
0.0
  0
LINE
  5
FA
330
F5
100
AcDbEntity
  8
FORMAT
 62
     0
100
AcDbLine
 10
0.0
 20
0.0
 30
0.0
 11
0.0
 21
-2.5
 31
0.0
  0
LINE
  5
FB
330
F5
100
AcDbEntity
  8
FORMAT
 62
     0
100
AcDbLine
 10
0.0
 20
0.0
 30
0.0
 11
2.5
 21
0.0
 31
0.0
  0
LINE
  5
FC
330
F5
100
AcDbEntity
  8
FORMAT
 62
     0
100
AcDbLine
 10
0.0
 20
5.0
 30
0.0
 11
0.0
 21
9.5
 31
0.0
  0
LINE
  5
FD
330
F5
100
AcDbEntity
  8
FORMAT
 62
     0
100
AcDbLine
 10
-5.0
 20
0.0
 30
0.0
 11
-9.5
 21
0.0
 31
0.0
  0
LINE
  5
FE
330
F5
100
AcDbEntity
  8
FORMAT
 62
     0
100
AcDbLine
 10
0.0
 20
-5.0
 30
0.0
 11
0.0
 21
-9.5
 31
0.0
  0
LINE
  5
FF
330
F5
100
AcDbEntity
  8
FORMAT
 62
     0
100
AcDbLine
 10
5.0
 20
0.0
 30
0.0
 11
9.5
 21
0.0
 31
0.0
  0
ENDBLK
  5
F7
330
F5
100
AcDbEntity
  8
0
100
AcDbBlockEnd
  0
ENDSEC
  0
SECTION
  2
ENTITIES
  0
LINE
  5
83
330
1F
100
AcDbEntity
  8
0
  6
Continuous
 62
     7
370
    25
100
AcDbLine
 10
102.6070913462
 20
713.3394528093
 30
0.0
 11
102.6070913462
 21
715.8949519231
 31
0.0
  0
LINE
  5
84
330
1F
100
AcDbEntity
  8
0
  6
Continuous
 62
     7
370
    25
100
AcDbLine
 10
88.6070913462
 20
715.8949519231
 30
0.0
 11
88.6070913462
 21
712.5547607213
 31
0.0
  0
LINE
  5
85
330
1F
100
AcDbEntity
  8
0
  6
Continuous
 62
     7
370
    25
100
AcDbLine
 10
172.6070913462
 20
712.5541122955
 30
0.0
 11
172.6070913462
 21
715.8949519231
 31
0.0
  0
LINE
  5
86
330
1F
100
AcDbEntity
  8
0
  6
Continuous
 62
     7
370
    25
100
AcDbLine
 10
158.6070913462
 20
715.8949519231
 30
0.0
 11
158.6070913462
 21
713.3416070446
 31
0.0
  0
CIRCLE
  5
87
330
1F
100
AcDbEntity
  8
0
  6
Continuous
 62
     7
370
    25
100
AcDbCircle
 10
130.6070913462
 20
95.8949519231
 30
0.0
 40
618.0
  0
ARC
  5
88
330
1F
100
AcDbEntity
  8
0
  6
Continuous
 62
     7
370
    25
100
AcDbCircle
 10
130.6070913462
 20
95.8949519231
 30
0.0
 40
618.9999999999998
100
AcDbArc
 50
93.8905864735
 51
180.0
  0
ARC
  5
89
330
1F
100
AcDbEntity
  8
0
  6
Continuous
 62
     7
370
    25
100
AcDbCircle
 10
130.6070913462
 20
95.8949519231
 30
0.0
 40
618.9999999999997
100
AcDbArc
 50
87.4073838004
 51
92.5926161996
  0
ARC
  5
8A
330
1F
100
AcDbEntity
  8
0
  6
Continuous
 62
     7
370
    25
100
AcDbCircle
 10
130.6070913462
 20
95.8949519231
 30
0.0
 40
618.9999999999998
100
AcDbArc
 50
180.0
 51
86.1094135265
  0
SPLINE
  5
8B
330
1F
100
AcDbEntity
  8
0
  6
Continuous
 62
     7
370
    25
100
AcDbSpline
210
0.0
220
0.0
230
1.0
 70
     8
 71
     3
 72
    15
 73
    11
 74
     0
 42
0.00000001
 43
0.00000001
 40
0.0
 40
0.0
 40
0.0
 40
0.0
 40
0.1331520602075555
 40
0.2662993005695339
 40
0.3995639927035137
 40
0.532954018619113
 40
0.6663575697832129
 40
0.7996162495920072
 40
0.9326143822340515
 40
0.9999999999999999
 40
0.9999999999999999
 40
0.9999999999999999
 40
0.9999999999999999
 10
101.3558360333172
 20
713.2572815718335
 30
0.0
 10
100.8428069301229
 20
713.2286021714215
 30
0.0
 10
99.81676729438985
 20
713.1712444087359
 30
0.0
 10
97.62973611652544
 20
713.0515892441466
 30
0.0
 10
95.25977529257776
 20
712.9184733342247
 30
0.0
 10
92.91792553157634
 20
712.7832307660075
 30
0.0
 10
90.87175282998574
 20
712.6629319558263
 30
0.0
 10
89.40112228632383
 20
712.5786487727023
 30
0.0
 10
88.63272963809457
 20
712.5391989793737
 30
0.0
 10
88.68761582978847
 20
712.5508445243222
 30
0.0
 10
88.70607311450632
 20
712.554760721314
 30
0.0
  0
SPLINE
  5
8C
330
1F
100
AcDbEntity
  8
0
  6
Continuous
 62
     7
370
    25
100
AcDbSpline
210
0.0
220
0.0
230
1.0
 70
     8
 71
     3
 72
    10
 73
     6
 74
     0
 42
0.00000001
 43
0.00000001
 40
0.0
 40
0.0
 40
0.0
 40
0.0
 40
0.0989068147178626
 40
0.6535307545449313
 40
1.0
 40
1.0
 40
1.0
 40
1.0
 10
102.5491372213234
 20
713.3394528092621
 30
0.0
 10
102.5673159844874
 20
713.3393577812684
 30
0.0
 10
102.6874328929248
 20
713.3387298799803
 30
0.0
 10
102.2467546024336
 20
713.3093249727322
 30
0.0
 10
101.603259229783
 20
713.27173490691
 30
0.0
 10
101.3558360333172
 20
713.2572815718336
 30
0.0
  0
SPLINE
  5
8D
330
1F
100
AcDbEntity
  8
0
  6
Continuous
 62
     7
370
    25
100
AcDbSpline
210
0.0
220
0.0
230
1.0
 70
     8
 71
     3
 72
    15
 73
    11
 74
     0
 42
0.00000001
 43
0.00000001
 40
0.0
 40
0.0
 40
0.0
 40
0.0
 40
0.1422549294955143
 40
0.2845032894441661
 40
0.4268924309109967
 40
0.5693143886632305
 40
0.7116290535702932
 40
0.8537749093969929
 40
0.995760351546411
 40
1.0
 40
1.0
 40
1.0
 40
1.0
 10
170.6442443862497
 20
712.6458354076625
 30
0.0
 10
170.0412836895972
 20
712.6810516595241
 30
0.0
 10
168.8353901419252
 20
712.7514825369076
 30
0.0
 10
166.510719426826
 20
712.8867397818541
 30
0.0
 10
164.1221641522183
 20
713.0216565931643
 30
0.0
 10
161.8959801010603
 20
713.1442817669218
 30
0.0
 10
160.0680894505335
 20
713.2443797812801
 30
0.0
 10
158.9576115150963
 20
713.3099971830369
 30
0.0
 10
158.4838621831142
 20
713.3423055461739
 30
0.0
 10
158.6147295708388
 20
713.3416267262714
 30
0.0
 10
158.6185239382467
 20
713.3416070445757
 30
0.0
  0
SPLINE
  5
8E
330
1F
100
AcDbEntity
  8
0
  6
Continuous
 62
     7
370
    25
100
AcDbSpline
210
0.0
220
0.0
230
1.0
 70
     8
 71
     3
 72
    10
 73
     6
 74
     0
 42
0.00000001
 43
0.00000001
 40
0.0
 40
0.0
 40
0.0
 40
0.0
 40
0.2889646011017125
 40
0.7269071308901078
 40
1.0
 40
1.0
 40
1.0
 40
1.0
 10
172.5180780949937
 20
712.5541122955416
 30
0.0
 10
172.5193180054135
 20
712.5505605487606
 30
0.0
 10
172.5224370716325
 20
712.5416259247535
 30
0.0
 10
171.7754676434739
 20
712.5809321164112
 30
0.0
 10
170.9581557075294
 20
712.6278249240717
 30
0.0
 10
170.6442443862497
 20
712.6458354076625
 30
0.0
  0
CIRCLE
  5
8F
330
1F
100
AcDbEntity
  8
0
  6
Continuous
 62
     7
370
    25
100
AcDbCircle
 10
130.6070913462
 20
95.8949519231
 30
0.0
 40
500.0
  0
LINE
  5
90
330
1F
100
AcDbEntity
  8
0
  6
Continuous
 62
     7
370
    25
100
AcDbLine
 10
95.6070913462
 20
715.8949519231
 30
0.0
 11
88.6070913462
 21
715.8949519231
 31
0.0
  0
LINE
  5
91
330
1F
100
AcDbEntity
  8
0
  6
Continuous
 62
     7
370
    25
100
AcDbLine
 10
102.6070913462
 20
715.8949519231
 30
0.0
 11
95.6070913462
 21
715.8949519231
 31
0.0
  0
LINE
  5
92
330
1F
100
AcDbEntity
  8
0
  6
Continuous
 62
     7
370
    25
100
AcDbLine
 10
172.6070913462
 20
715.8949519231
 30
0.0
 11
158.6070913462
 21
715.8949519231
 31
0.0
  0
INSERT
  5
9E
330
1F
100
AcDbEntity
  8
FORMAT
 62
     7
100
AcDbBlockReference
  2
SW_CENTERMARKSYMBOL_0
 10
130.6070913462
 20
95.8949519231
 30
0.0
  0
ARC
  5
9F
330
1F
100
AcDbEntity
  8
0
  6
Continuous
 62
     7
370
    25
100
AcDbCircle
 10
1733.8212024552
 20
-40613.7300480781
 30
0.0
 40
41328.62500000116
100
AcDbArc
 50
90.0
 51
90.3722365557
  0
LINE
  5
A0
330
1F
100
AcDbEntity
  8
0
  6
Continuous
 62
     7
370
    25
100
AcDbLine
 10
1451.3212024552
 20
713.9294324771
 30
0.0
 11
1446.3212024552
 21
713.8949519231
 31
0.0
  0
ARC
  5
A1
330
1F
100
AcDbEntity
  8
0
  6
Continuous
 62
     7
370
    25
100
AcDbCircle
 10
1733.8212024552
 20
40805.5199519242
 30
0.0
 40
41328.62500000115
100
AcDbArc
 50
269.6014222716
 51
270.0
  0
LINE
  5
A2
330
1F
100
AcDbEntity
  8
0
  6
Continuous
 62
     7
370
    25
100
AcDbLine
 10
1733.8212024552
 20
-523.1050480769
 30
0.0
 11
1758.8212024552
 21
-523.1050480769
 31
0.0
  0
LINE
  5
A3
330
1F
100
AcDbEntity
  8
0
  6
Continuous
 62
     7
370
    25
100
AcDbLine
 10
1758.8212024552
 20
714.8949519231
 30
0.0
 11
1733.8212024552
 21
714.8949519231
 31
0.0
  0
LINE
  5
A4
330
1F
100
AcDbEntity
  8
0
  6
Continuous
 62
     7
370
    25
100
AcDbLine
 10
2046.3212024552
 20
713.8949519231
 30
0.0
 11
2041.3212024552
 21
713.9294324771
 31
0.0
  0
ARC
  5
A5
330
1F
100
AcDbEntity
  8
0
  6
Continuous
 62
     7
370
    25
100
AcDbCircle
 10
1758.8212024552
 20
-40613.7300480781
 30
0.0
 40
41328.62500000116
100
AcDbArc
 50
89.6277634443
 51
90.0
  0
ARC
  5
A6
330
1F
100
AcDbEntity
  8
0
  6
Continuous
 62
     7
370
    25
100
AcDbCircle
 10
1758.8212024552
 20
40805.5199519242
 30
0.0
 40
41328.62500000115
100
AcDbArc
 50
270.0
 51
270.3985777284
  0
LINE
  5
A7
330
1F
100
AcDbEntity
  8
0
  6
Continuous
 62
     7
370
    25
100
AcDbLine
 10
1465.3212024552
 20
713.0300073655
 30
0.0
 11
1465.3212024552
 21
715.8949519231
 31
0.0
  0
LINE
  5
A8
330
1F
100
AcDbEntity
  8
0
  6
Continuous
 62
     7
370
    25
100
AcDbLine
 10
1451.3212024552
 20
715.8949519231
 30
0.0
 11
1451.3212024552
 21
712.936963044
 31
0.0
  0
LINE
  5
A9
330
1F
100
AcDbEntity
  8
0
  6
Continuous
 62
     7
370
    25
100
AcDbLine
 10
2041.3212024552
 20
712.9370463324
 30
0.0
 11
2041.3212024552
 21
715.8949519231
 31
0.0
  0
LINE
  5
AA
330
1F
100
AcDbEntity
  8
0
  6
Continuous
 62
     7
370
    25
100
AcDbLine
 10
2027.3212024552
 20
715.8949519231
 30
0.0
 11
2027.3212024552
 21
713.0297344259
 31
0.0
  0
LINE
  5
AB
330
1F
100
AcDbEntity
  8
0
  6
Continuous
 62
     7
370
    25
100
AcDbLine
 10
1446.3212024552
 20
95.8949519231
 30
0.0
 11
1446.3212024552
 21
713.8949519231
 31
0.0
  0
LINE
  5
AC
330
1F
100
AcDbEntity
  8
0
  6
Continuous
 62
     7
370
    25
100
AcDbLine
 10
1446.3212024552
 20
-522.1050480769
 30
0.0
 11
1446.3212024552
 21
95.8949519231
 31
0.0
  0
SPLINE
  5
AD
330
1F
100
AcDbEntity
  8
0
  6
Continuous
 62
     7
370
    25
100
AcDbSpline
210
0.0
220
0.0
230
1.0
 70
     8
 71
     3
 72
    18
 73
    14
 74
     0
 42
0.00000001
 43
0.00000001
 40
0.0
 40
0.0
 40
0.0
 40
0.0
 40
0.0131930694934557
 40
0.1207724896493763
 40
0.2284461219813129
 40
0.3360780417233415
 40
0.4435259361057471
 40
0.5507403135287761
 40
0.6578123236556344
 40
0.7649196757991643
 40
0.8722099214410061
 40
0.9797135130427141
 40
1.0
 40
1.0
 40
1.0
 40
1.0
 10
1465.278590093817
 20
713.0300073654603
 30
0.0
 10
1465.292361763568
 20
713.0248419482499
 30
0.0
 10
1465.418430897307
 20
712.9775564930424
 30
0.0
 10
1464.898884523833
 20
712.8733686321463
 30
0.0
 10
1463.711193755431
 20
712.7378096772218
 30
0.0
 10
1461.835756329074
 20
712.6252177194519
 30
0.0
 10
1459.585746568767
 20
712.5550732200157
 30
0.0
 10
1457.189434152831
 20
712.53754287787
 30
0.0
 10
1454.929738485597
 20
712.5745720237232
 30
0.0
 10
1453.032612780551
 20
712.65928471959
 30
0.0
 10
1451.797811220964
 20
712.7771887334418
 30
0.0
 10
1451.243084112736
 20
712.8766847773973
 30
0.0
 10
1451.362972504564
 20
712.9287049225383
 30
0.0
 10
1451.382004610378
 20
712.9369630440438
 30
0.0
  0
LINE
  5
AE
330
1F
100
AcDbEntity
  8
0
  6
Continuous
 62
     7
370
    25
100
AcDbLine
 10
2046.3212024552
 20
95.8949519231
 30
0.0
 11
2046.3212024552
 21
713.8949519231
 31
0.0
  0
LINE
  5
AF
330
1F
100
AcDbEntity
  8
0
  6
Continuous
 62
     7
370
    25
100
AcDbLine
 10
2046.3212024552
 20
-522.1050480769
 30
0.0
 11
2046.3212024552
 21
95.8949519231
 31
0.0
  0
SPLINE
  5
B0
330
1F
100
AcDbEntity
  8
0
  6
Continuous
 62
     7
370
    25
100
AcDbSpline
210
0.0
220
0.0
230
1.0
 70
     8
 71
     3
 72
    18
 73
    14
 74
     0
 42
0.00000001
 43
0.00000001
 40
0.0
 40
0.0
 40
0.0
 40
0.0
 40
0.0154636729176349
 40
0.1230917667820835
 40
0.2307307737317136
 40
0.3382528886744633
 40
0.4455647765426876
 40
0.5526846450814153
 40
0.659752581202152
 40
0.7669483321694267
 40
0.8743740644250478
 40
0.9819935663539195
 40
1.0
 40
1.0
 40
1.0
 40
1.0
 10
2041.272393492548
 20
712.9370463323721
 30
0.0
 10
2041.288027775101
 20
712.9307683013241
 30
0.0
 10
2041.412477604844
 20
712.8807947964694
 30
0.0
 10
2040.881362481548
 20
712.7827257086534
 30
0.0
 10
2039.67634174105
 20
712.6634993221909
 30
0.0
 10
2037.791293052246
 20
712.5768875150153
 30
0.0
 10
2035.537203556213
 20
712.5379292307764
 30
0.0
 10
2033.142627258261
 20
712.5535179768673
 30
0.0
 10
2030.888950918971
 20
712.6216589824281
 30
0.0
 10
2029.000467396396
 20
712.7324211491131
 30
0.0
 10
2027.780457407764
 20
712.8671526093137
 30
0.0
 10
2027.236660303683
 20
712.9732122637902
 30
0.0
 10
2027.359051937694
 20
713.02264854016
 30
0.0
 10
2027.376594786841
 20
713.0297344259376
 30
0.0
  0
LINE
  5
B1
330
1F
100
AcDbEntity
  8
0
  6
Continuous
 62
     7
370
    25
100
AcDbLine
 10
1465.3212024552
 20
715.8949519231
 30
0.0
 11
1451.3212024552
 21
715.8949519231
 31
0.0
  0
LINE
  5
B2
330
1F
100
AcDbEntity
  8
0
  6
Continuous
 62
     7
370
    25
100
AcDbLine
 10
2041.3212024552
 20
715.8949519231
 30
0.0
 11
2027.3212024552
 21
715.8949519231
 31
0.0
  0
LINE
  5
B3
330
1F
100
AcDbEntity
  8
0
  6
Continuous
 62
     1
370
    25
100
AcDbLine
 10
1733.8212024552
 20
95.8949519231
 30
0.0
 11
1733.8212024552
 21
714.8949519231
 31
0.0
  0
LINE
  5
B4
330
1F
100
AcDbEntity
  8
0
  6
Continuous
 62
     1
370
    25
100
AcDbLine
 10
1733.8212024552
 20
-523.1050480769
 30
0.0
 11
1733.8212024552
 21
95.8949519231
 31
0.0
  0
LINE
  5
B5
330
1F
100
AcDbEntity
  8
0
  6
Continuous
 62
     1
370
    25
100
AcDbLine
 10
1758.8212024552
 20
95.8949519231
 30
0.0
 11
1758.8212024552
 21
714.8949519231
 31
0.0
  0
LINE
  5
B6
330
1F
100
AcDbEntity
  8
0
  6
Continuous
 62
     1
370
    25
100
AcDbLine
 10
1758.8212024552
 20
-523.1050480769
 30
0.0
 11
1758.8212024552
 21
95.8949519231
 31
0.0
  0
ARC
  5
B7
330
1F
100
AcDbEntity
  8
0
  6
Continuous
 62
     7
370
    25
100
AcDbCircle
 10
40840.2320913473
 20
1541.910505239
 30
0.0
 40
41328.62500000116
100
AcDbArc
 50
180.0
 51
180.3985777284
  0
ARC
  5
B8
330
1F
100
AcDbEntity
  8
0
  6
Continuous
 62
     7
370
    25
100
AcDbCircle
 10
-40579.017908655
 20
1541.910505239
 30
0.0
 40
41328.62500000116
100
AcDbArc
 50
359.6014222716
 51
0.0
  0
LINE
  5
B9
330
1F
100
AcDbEntity
  8
0
  6
Continuous
 62
     7
370
    25
100
AcDbLine
 10
749.6070913462
 20
1541.910505239
 30
0.0
 11
749.6070913462
 21
1566.910505239
 31
0.0
  0
LINE
  5
BA
330
1F
100
AcDbEntity
  8
0
  6
Continuous
 62
     7
370
    25
100
AcDbLine
 10
-488.3929086538
 20
1566.910505239
 30
0.0
 11
-488.3929086538
 21
1541.910505239
 31
0.0
  0
ARC
  5
BB
330
1F
100
AcDbEntity
  8
0
  6
Continuous
 62
     7
370
    25
100
AcDbCircle
 10
40840.2320913473
 20
1566.910505239
 30
0.0
 40
41328.62500000116
100
AcDbArc
 50
179.6014222716
 51
180.0
  0
ARC
  5
BC
330
1F
100
AcDbEntity
  8
0
  6
Continuous
 62
     7
370
    25
100
AcDbCircle
 10
-40579.017908655
 20
1566.910505239
 30
0.0
 40
41328.62500000115
100
AcDbArc
 50
0.0
 51
0.3985777284
  0
LINE
  5
BD
330
1F
100
AcDbEntity
  8
0
  6
Continuous
 62
     7
370
    25
100
AcDbLine
 10
748.6070913462
 20
1254.410505239
 30
0.0
 11
-487.3929086538
 21
1254.410505239
 31
0.0
  0
LINE
  5
BE
330
1F
100
AcDbEntity
  8
0
  6
Continuous
 62
     7
370
    25
100
AcDbLine
 10
748.6070913462
 20
1854.410505239
 30
0.0
 11
-487.3929086538
 21
1854.410505239
 31
0.0
  0
LINE
  5
BF
330
1F
100
AcDbEntity
  8
0
  6
Continuous
 62
     1
370
    25
100
AcDbLine
 10
749.6070913462
 20
1541.910505239
 30
0.0
 11
-488.3929086538
 21
1541.910505239
 31
0.0
  0
LINE
  5
C0
330
1F
100
AcDbEntity
  8
0
  6
Continuous
 62
     1
370
    25
100
AcDbLine
 10
749.6070913462
 20
1566.910505239
 30
0.0
 11
-488.3929086538
 21
1566.910505239
 31
0.0
  0
ARC
  5
C1
330
1F
100
AcDbEntity
  8
0
  6
Continuous
 62
     7
370
    25
100
AcDbCircle
 10
-1319.1521303116
 20
40805.5199519242
 30
0.0
 40
41328.62500000115
100
AcDbArc
 50
270.0
 51
270.3985777284
  0
LINE
  5
C2
330
1F
100
AcDbEntity
  8
0
  6
Continuous
 62
     7
370
    25
100
AcDbLine
 10
-1031.6521303115
 20
713.8949519231
 30
0.0
 11
-1036.6521303115
 21
713.9294324771
 31
0.0
  0
ARC
  5
C3
330
1F
100
AcDbEntity
  8
0
  6
Continuous
 62
     7
370
    25
100
AcDbCircle
 10
-1319.1521303116
 20
-40613.7300480781
 30
0.0
 40
41328.62500000116
100
AcDbArc
 50
89.6277634443
 51
90.0
  0
LINE
  5
C4
330
1F
100
AcDbEntity
  8
0
  6
Continuous
 62
     7
370
    25
100
AcDbLine
 10
-1319.1521303115
 20
714.8949519231
 30
0.0
 11
-1344.1521303116
 21
714.8949519231
 31
0.0
  0
LINE
  5
C5
330
1F
100
AcDbEntity
  8
0
  6
Continuous
 62
     7
370
    25
100
AcDbLine
 10
-1344.1521303116
 20
-523.1050480769
 30
0.0
 11
-1319.1521303115
 21
-523.1050480769
 31
0.0
  0
ARC
  5
C6
330
1F
100
AcDbEntity
  8
0
  6
Continuous
 62
     7
370
    25
100
AcDbCircle
 10
-1344.1521303115
 20
40805.5199519242
 30
0.0
 40
41328.62500000115
100
AcDbArc
 50
269.6014222716
 51
270.0
  0
ARC
  5
C7
330
1F
100
AcDbEntity
  8
0
  6
Continuous
 62
     7
370
    25
100
AcDbCircle
 10
-1344.1521303115
 20
-40613.7300480781
 30
0.0
 40
41328.62500000116
100
AcDbArc
 50
90.0
 51
90.3722365557
  0
LINE
  5
C8
330
1F
100
AcDbEntity
  8
0
  6
Continuous
 62
     7
370
    25
100
AcDbLine
 10
-1626.6521303115
 20
713.9294324771
 30
0.0
 11
-1631.6521303115
 21
713.8949519231
 31
0.0
  0
LINE
  5
C9
330
1F
100
AcDbEntity
  8
0
  6
Continuous
 62
     7
370
    25
100
AcDbLine
 10
-1036.6521303115
 20
712.9369031124
 30
0.0
 11
-1036.6521303115
 21
715.8949519231
 31
0.0
  0
LINE
  5
CA
330
1F
100
AcDbEntity
  8
0
  6
Continuous
 62
     7
370
    25
100
AcDbLine
 10
-1050.6521303115
 20
715.8949519231
 30
0.0
 11
-1050.6521303115
 21
713.0291813266
 31
0.0
  0
LINE
  5
CB
330
1F
100
AcDbEntity
  8
0
  6
Continuous
 62
     7
370
    25
100
AcDbLine
 10
-1612.6521303115
 20
713.0292545015
 30
0.0
 11
-1612.6521303115
 21
715.8949519231
 31
0.0
  0
LINE
  5
CC
330
1F
100
AcDbEntity
  8
0
  6
Continuous
 62
     7
370
    25
100
AcDbLine
 10
-1626.6521303115
 20
715.8949519231
 30
0.0
 11
-1626.6521303115
 21
712.9369582424
 31
0.0
  0
LINE
  5
CD
330
1F
100
AcDbEntity
  8
0
  6
Continuous
 62
     7
370
    25
100
AcDbLine
 10
-1031.6521303115
 20
713.8949519231
 30
0.0
 11
-1031.6521303115
 21
-522.1050480769
 31
0.0
  0
SPLINE
  5
CE
330
1F
100
AcDbEntity
  8
0
  6
Continuous
 62
     7
370
    25
100
AcDbSpline
210
0.0
220
0.0
230
1.0
 70
     8
 71
     3
 72
    10
 73
     6
 74
     0
 42
0.00000001
 43
0.00000001
 40
0.0
 40
0.0
 40
0.0
 40
0.0
 40
0.4182283160313158
 40
0.8364435182916614
 40
1.0
 40
1.0
 40
1.0
 40
1.0
 10
-1048.489302394998
 20
712.7091513204022
 30
0.0
 10
-1048.995995034951
 20
712.750936609323
 30
0.0
 10
-1050.009364427238
 20
712.8345058769651
 30
0.0
 10
-1050.664295723588
 20
712.9517919610532
 30
0.0
 10
-1050.580685392848
 20
713.0121988309631
 30
0.0
 10
-1050.557179588239
 20
713.0291813266492
 30
0.0
  0
SPLINE
  5
CF
330
1F
100
AcDbEntity
  8
0
  6
Continuous
 62
     7
370
    25
100
AcDbSpline
210
0.0
220
0.0
230
1.0
 70
     8
 71
     3
 72
    15
 73
    11
 74
     0
 42
0.00000001
 43
0.00000001
 40
0.0
 40
0.0
 40
0.0
 40
0.0
 40
0.042867082370223
 40
0.1877522274026445
 40
0.3326273769622678
 40
0.4773200908876649
 40
0.6217220709334822
 40
0.7658851523962431
 40
0.9100157146729206
 40
1.0
 40
1.0
 40
1.0
 40
1.0
 10
-1036.7349780713
 20
712.9369031124261
 30
0.0
 10
-1036.711169946968
 20
712.9238573807374
 30
0.0
 10
-1036.606893468923
 20
712.8667187781733
 30
0.0
 10
-1037.228152400688
 20
712.7632079092666
 30
0.0
 10
-1038.550187071508
 20
712.6477261627497
 30
0.0
 10
-1040.505518608891
 20
712.5676437113588
 30
0.0
 10
-1042.80028993871
 20
712.5366584923183
 30
0.0
 10
-1045.183216155003
 20
712.5608968366232
 30
0.0
 10
-1047.142569749661
 20
712.6259381775455
 30
0.0
 10
-1048.115389717351
 20
712.6860476634372
 30
0.0
 10
-1048.489302394998
 20
712.709151320402
 30
0.0
  0
LINE
  5
D0
330
1F
100
AcDbEntity
  8
0
  6
Continuous
 62
     7
370
    25
100
AcDbLine
 10
-1631.6521303115
 20
713.8949519231
 30
0.0
 11
-1631.6521303115
 21
-522.1050480769
 31
0.0
  0
SPLINE
  5
D1
330
1F
100
AcDbEntity
  8
0
  6
Continuous
 62
     7
370
    25
100
AcDbSpline
210
0.0
220
0.0
230
1.0
 70
     8
 71
     3
 72
    10
 73
     6
 74
     0
 42
0.00000001
 43
0.00000001
 40
0.0
 40
0.0
 40
0.0
 40
0.0
 40
0.4203761068256021
 40
0.8407328000496009
 40
1.0
 40
1.0
 40
1.0
 40
1.0
 10
-1624.512900749519
 20
712.6458354076628
 30
0.0
 10
-1625.016352989214
 20
712.6809808249302
 30
0.0
 10
-1626.023234218421
 20
712.7512700363965
 30
0.0
 10
-1626.668443743455
 20
712.859331436481
 30
0.0
 10
-1626.582144813509
 20
712.920225865815
 30
0.0
 10
-1626.55843186949
 20
712.9369582423902
 30
0.0
  0
SPLINE
  5
D2
330
1F
100
AcDbEntity
  8
0
  6
Continuous
 62
     7
370
    25
100
AcDbSpline
210
0.0
220
0.0
230
1.0
 70
     8
 71
     3
 72
    15
 73
    11
 74
     0
 42
0.00000001
 43
0.00000001
 40
0.0
 40
0.0
 40
0.0
 40
0.0
 40
0.0445530071533566
 40
0.1890917717939686
 40
0.3337292026802421
 40
0.4782717363595353
 40
0.6225417571614307
 40
0.7665068404384007
 40
0.9103204749566433
 40
1.0
 40
1.0
 40
1.0
 40
1.0
 10
-1612.736824604492
 20
713.029254501465
 30
0.0
 10
-1612.712813665339
 20
713.0159792157966
 30
0.0
 10
-1612.610906491909
 20
712.959636278507
 30
0.0
 10
-1613.239797758298
 20
712.8473391492089
 30
0.0
 10
-1614.570656877969
 20
712.7144054259276
 30
0.0
 10
-1616.532388790413
 20
712.6086105775806
 30
0.0
 10
-1618.831914731591
 20
712.5475597185696
 30
0.0
 10
-1621.215839203885
 20
712.5407037987861
 30
0.0
 10
-1623.172016868284
 20
712.5802201452155
 30
0.0
 10
-1624.140809185672
 20
712.6276273540365
 30
0.0
 10
-1624.512900749519
 20
712.645835407663
 30
0.0
  0
LINE
  5
D3
330
1F
100
AcDbEntity
  8
0
  6
Continuous
 62
     7
370
    25
100
AcDbLine
 10
-1036.6521303115
 20
715.8949519231
 30
0.0
 11
-1050.6521303115
 21
715.8949519231
 31
0.0
  0
LINE
  5
D4
330
1F
100
AcDbEntity
  8
0
  6
Continuous
 62
     7
370
    25
100
AcDbLine
 10
-1612.6521303115
 20
715.8949519231
 30
0.0
 11
-1626.6521303115
 21
715.8949519231
 31
0.0
  0
LINE
  5
D5
330
1F
100
AcDbEntity
  8
0
  6
Continuous
 62
     1
370
    25
100
AcDbLine
 10
-1319.1521303115
 20
714.8949519231
 30
0.0
 11
-1319.1521303115
 21
-523.1050480769
 31
0.0
  0
LINE
  5
D6
330
1F
100
AcDbEntity
  8
0
  6
Continuous
 62
     1
370
    25
100
AcDbLine
 10
-1344.1521303116
 20
714.8949519231
 30
0.0
 11
-1344.1521303116
 21
-523.1050480769
 31
0.0
  0
ARC
  5
D7
330
1F
100
AcDbEntity
  8
0
  6
Continuous
 62
     7
370
    25
100
AcDbCircle
 10
-40579.017908655
 20
-1465.9799754362
 30
0.0
 40
41328.62500000116
100
AcDbArc
 50
0.0
 51
0.3985777284
  0
ARC
  5
D8
330
1F
100
AcDbEntity
  8
0
  6
Continuous
 62
     7
370
    25
100
AcDbCircle
 10
40840.2320913473
 20
-1465.9799754362
 30
0.0
 40
41328.62500000116
100
AcDbArc
 50
179.6014222716
 51
180.0
  0
LINE
  5
D9
330
1F
100
AcDbEntity
  8
0
  6
Continuous
 62
     7
370
    25
100
AcDbLine
 10
-488.3929086538
 20
-1465.9799754362
 30
0.0
 11
-488.3929086538
 21
-1490.9799754362
 31
0.0
  0
LINE
  5
DA
330
1F
100
AcDbEntity
  8
0
  6
Continuous
 62
     7
370
    25
100
AcDbLine
 10
749.6070913462
 20
-1490.9799754362
 30
0.0
 11
749.6070913462
 21
-1465.9799754362
 31
0.0
  0
ARC
  5
DB
330
1F
100
AcDbEntity
  8
0
  6
Continuous
 62
     7
370
    25
100
AcDbCircle
 10
-40579.017908655
 20
-1490.9799754362
 30
0.0
 40
41328.62500000115
100
AcDbArc
 50
359.6014222716
 51
0.0
  0
ARC
  5
DC
330
1F
100
AcDbEntity
  8
0
  6
Continuous
 62
     7
370
    25
100
AcDbCircle
 10
40840.2320913473
 20
-1490.9799754362
 30
0.0
 40
41328.62500000116
100
AcDbArc
 50
180.0
 51
180.3985777284
  0
CIRCLE
  5
DD
330
1F
100
AcDbEntity
  8
0
  6
Continuous
 62
     7
370
    25
100
AcDbCircle
 10
165.6070913462
 20
-1190.4799754362
 30
0.0
 40
7.0
  0
CIRCLE
  5
DE
330
1F
100
AcDbEntity
  8
0
  6
Continuous
 62
     7
370
    25
100
AcDbCircle
 10
165.6070913462
 20
-1190.4799754362
 30
0.0
 40
5.0
  0
CIRCLE
  5
DF
330
1F
100
AcDbEntity
  8
0
  6
Continuous
 62
     7
370
    25
100
AcDbCircle
 10
95.6070913462
 20
-1190.4799754362
 30
0.0
 40
5.000000000000227
  0
CIRCLE
  5
E0
330
1F
100
AcDbEntity
  8
0
  6
Continuous
 62
     7
370
    25
100
AcDbCircle
 10
95.6070913462
 20
-1190.4799754362
 30
0.0
 40
7.0
  0
CIRCLE
  5
E1
330
1F
100
AcDbEntity
  8
0
  6
Continuous
 62
     7
370
    25
100
AcDbCircle
 10
165.6070913462
 20
-1766.4799754362
 30
0.0
 40
6.999999999999773
  0
CIRCLE
  5
E2
330
1F
100
AcDbEntity
  8
0
  6
Continuous
 62
     7
370
    25
100
AcDbCircle
 10
165.6070913462
 20
-1766.4799754362
 30
0.0
 40
4.999999999999773
  0
CIRCLE
  5
E3
330
1F
100
AcDbEntity
  8
0
  6
Continuous
 62
     7
370
    25
100
AcDbCircle
 10
95.6070913462
 20
-1766.4799754362
 30
0.0
 40
5.000000000000227
  0
CIRCLE
  5
E4
330
1F
100
AcDbEntity
  8
0
  6
Continuous
 62
     7
370
    25
100
AcDbCircle
 10
95.6070913462
 20
-1766.4799754362
 30
0.0
 40
7.000000000000227
  0
LINE
  5
E5
330
1F
100
AcDbEntity
  8
0
  6
Continuous
 62
     7
370
    25
100
AcDbLine
 10
-487.3929086538
 20
-1178.4799754362
 30
0.0
 11
748.6070913462
 21
-1178.4799754362
 31
0.0
  0
LINE
  5
E6
330
1F
100
AcDbEntity
  8
0
  6
Continuous
 62
     7
370
    25
100
AcDbLine
 10
-487.3929086538
 20
-1778.4799754362
 30
0.0
 11
748.6070913462
 21
-1778.4799754362
 31
0.0
  0
LINE
  5
E7
330
1F
100
AcDbEntity
  8
0
  6
Continuous
 62
     1
370
    25
100
AcDbLine
 10
-488.3929086538
 20
-1465.9799754362
 30
0.0
 11
749.6070913462
 21
-1465.9799754362
 31
0.0
  0
LINE
  5
E8
330
1F
100
AcDbEntity
  8
0
  6
Continuous
 62
     1
370
    25
100
AcDbLine
 10
-488.3929086538
 20
-1490.9799754362
 30
0.0
 11
749.6070913462
 21
-1490.9799754362
 31
0.0
  0
INSERT
  5
F4
330
1F
100
AcDbEntity
  8
FORMAT
 62
     7
100
AcDbBlockReference
  2
SW_CENTERMARKSYMBOL_1
 10
130.6070913462
 20
-1445.4799754362
 30
0.0
  0
INSERT
  5
100
330
1F
100
AcDbEntity
  8
FORMAT
 62
     7
100
AcDbBlockReference
  2
SW_CENTERMARKSYMBOL_2
 10
130.6070913462
 20
-1511.4799754362
 30
0.0
  0
SPLINE
  5
101
330
1F
100
AcDbEntity
  8
0
  6
Continuous
 62
     7
370
    25
100
AcDbSpline
210
0.0
220
0.0
230
1.0
 70
     8
 71
     3
 72
    10
 73
     6
 74
     0
 42
0.00000001
 43
0.00000001
 40
0.0
 40
0.0
 40
0.0
 40
0.0
 40
0.2380018926064268
 40
0.6339289808749393
 40
1.0
 40
1.0
 40
1.0
 40
1.0
 10
1399.219349395314
 20
-886.9054909608645
 30
0.0
 10
1382.968729424714
 20
-896.2831124891338
 30
0.0
 10
1339.684456162299
 20
-921.2608384783858
 30
0.0
 10
1271.56612565252
 20
-960.940370786355
 30
0.0
 10
1219.776055895727
 20
-991.3718130716309
 30
0.0
 10
1194.895621899276
 20
-1005.991362625266
 30
0.0
  0
SPLINE
  5
102
330
1F
100
AcDbEntity
  8
0
  6
Continuous
 62
     7
370
    25
100
AcDbSpline
210
0.0
220
0.0
230
1.0
 70
     8
 71
     3
 72
    11
 73
     7
 74
     0
 42
0.00000001
 43
0.00000001
 40
0.0
 40
0.0
 40
0.0
 40
0.0
 40
0.0501927208087374
 40
0.4461316820542661
 40
0.8420686826370881
 40
1.0
 40
1.0
 40
1.0
 40
1.0
 10
1812.823534571016
 20
-2076.390194221835
 30
0.0
 10
1816.269750776684
 20
-2074.446226889259
 30
0.0
 10
1846.901009807575
 20
-2057.167517905839
 30
0.0
 10
1904.563453298897
 20
-2024.279164673854
 30
0.0
 10
1969.556863063604
 20
-1987.101069312971
 30
0.0
 10
2007.353726501156
 20
-1965.241466547665
 30
0.0
 10
2018.131213209582
 20
-1959.00836790328
 30
0.0
  0
LINE
  5
103
330
1F
100
AcDbEntity
  8
0
  6
Continuous
 62
     7
370
    25
100
AcDbLine
 10
1416.8781048007
 20
-876.6675812273
 30
0.0
 11
1399.200435271
 21
-886.8726826251
 31
0.0
  0
LINE
  5
104
330
1F
100
AcDbEntity
  8
0
  6
Continuous
 62
     7
370
    25
100
AcDbLine
 10
2018.1501307727
 20
-1959.0411742523
 30
0.0
 11
2035.8278003024
 21
-1948.8360728546
 31
0.0
  0
SPLINE
  5
105
330
1F
100
AcDbEntity
  8
0
  6
Continuous
 62
     7
370
    25
100
AcDbSpline
210
0.0
220
0.0
230
1.0
 70
     8
 71
     3
 72
    11
 73
     7
 74
     0
 42
0.00000001
 43
0.00000001
 40
0.0
 40
0.0
 40
0.0
 40
0.0
 40
0.0501927348163551
 40
0.4461316832357873
 40
0.8420686709779103
 40
1.0
 40
1.0
 40
1.0
 40
1.0
 10
1622.204704223393
 20
-759.3185594400824
 30
0.0
 10
1618.758486944106
 20
-761.2625273780553
 30
0.0
 10
1588.127226837836
 20
-778.5412369661542
 30
0.0
 10
1530.46478227196
 20
-811.429590804386
 30
0.0
 10
1465.471371360485
 20
-848.6076868272779
 30
0.0
 10
1427.674506778395
 20
-870.4672902560619
 30
0.0
 10
1416.897018924981
 20
-876.7003895630828
 30
0.0
  0
SPLINE
  5
106
330
1F
100
AcDbEntity
  8
0
  6
Continuous
 62
     7
370
    25
100
AcDbSpline
210
0.0
220
0.0
230
1.0
 70
     8
 71
     3
 72
    10
 73
     6
 74
     0
 42
0.00000001
 43
0.00000001
 40
0.0
 40
0.0
 40
0.0
 40
0.0
 40
0.2380019030114975
 40
0.6339289806927177
 40
1.0
 40
1.0
 40
1.0
 40
1.0
 10
2035.808882739259
 20
-1948.80326650549
 30
0.0
 10
2052.059503855063
 20
-1939.425644316866
 30
0.0
 10
2095.343778263018
 20
-1914.447917667896
 30
0.0
 10
2163.462110595011
 20
-1874.768384300211
 30
0.0
 10
2215.252181029041
 20
-1844.336941616046
 30
0.0
 10
2240.132615702972
 20
-1829.717391663874
 30
0.0
  0
LINE
  5
107
330
1F
100
AcDbEntity
  8
0
  6
Continuous
 62
     7
370
    25
100
AcDbLine
 10
1545.6161021465
 20
-1046.0436644465
 30
0.0
 11
1545.6161021465
 21
-1043.44898443
 31
0.0
  0
LINE
  5
108
330
1F
100
AcDbEntity
  8
0
  6
Continuous
 62
     7
370
    25
100
AcDbLine
 10
1531.6161021465
 20
-1043.44898443
 30
0.0
 11
1531.6161021465
 21
-1045.6416430551
 31
0.0
  0
LINE
  5
109
330
1F
100
AcDbEntity
  8
0
  6
Continuous
 62
     7
370
    25
100
AcDbLine
 10
1496.1186274634
 20
-1017.0147892074
 30
0.0
 11
1496.1186274634
 21
-1014.8747005162
 31
0.0
  0
LINE
  5
10A
330
1F
100
AcDbEntity
  8
0
  6
Continuous
 62
     7
370
    25
100
AcDbLine
 10
1482.1186274634
 20
-1014.8747005162
 30
0.0
 11
1482.1186274634
 21
-1017.5211977441
 31
0.0
  0
LINE
  5
10B
330
1F
100
AcDbEntity
  8
0
  6
Continuous
 62
     7
370
    25
100
AcDbLine
 10
1952.9096081099
 20
-810.9718959482
 30
0.0
 11
1952.9096081099
 21
-808.3234482251
 31
0.0
  0
LINE
  5
10C
330
1F
100
AcDbEntity
  8
0
  6
Continuous
 62
     7
370
    25
100
AcDbLine
 10
1938.9096081099
 20
-808.3234482251
 30
0.0
 11
1938.9096081099
 21
-810.4627588
 31
0.0
  0
LINE
  5
10D
330
1F
100
AcDbEntity
  8
0
  6
Continuous
 62
     7
370
    25
100
AcDbLine
 10
1903.4121334269
 20
-781.9424237781
 30
0.0
 11
1903.4121334269
 21
-779.7491643113
 31
0.0
  0
LINE
  5
10E
330
1F
100
AcDbEntity
  8
0
  6
Continuous
 62
     7
370
    25
100
AcDbLine
 10
1889.4121334269
 20
-779.7491643113
 30
0.0
 11
1889.4121334269
 21
-782.3419015473
 31
0.0
  0
LWPOLYLINE
  5
10F
330
1F
100
AcDbEntity
  8
0
  6
Continuous
 62
     7
370
    25
100
AcDbPolyline
 90
      241
 70
   128
 43
0.0
 10
1068.3900926574
 20
-1288.04548796
 10
1068.5398388986
 20
-1274.9224648113
 10
1068.9889749933
 20
-1261.981328857
 10
1069.7371931263
 20
-1249.2309493053
 10
1070.7839805061
 20
-1236.6800646294
 10
1072.128619717
 20
-1224.3372765788
 10
1073.7701892105
 20
-1212.2110442838
 10
1075.7075639368
 20
-1200.3096784583
 10
1077.9394161159
 20
-1188.641335704
 10
1080.4642161481
 20
-1177.2140129202
 10
1083.2802336613
 20
-1166.0355418231
 10
1086.385538698
 20
-1155.1135835784
 10
1089.778003037
 20
-1144.4556235507
 10
1093.4553016529
 20
-1134.0689661735
 10
1097.4149143087
 20
-1123.9607299429
 10
1101.6541272839
 20
-1114.137842539
 10
1106.1700352336
 20
-1104.6070360783
 10
1110.95954318
 20
-1095.3748424995
 10
1116.0193686337
 20
-1086.4475890867
 10
1121.3460438429
 20
-1077.8313941337
 10
1126.9359181707
 20
-1069.53216275
 10
1132.7851605964
 20
-1061.5555828143
 10
1138.8897623413
 20
-1053.907121076
 10
1145.2455396164
 20
-1046.5920194088
 10
1151.8481364894
 20
-1039.6152912179
 10
1158.6930278702
 20
-1032.9817180043
 10
1165.7755226122
 20
-1026.6958460878
 10
1173.0907667273
 20
-1020.761983491
 10
1180.6337467125
 20
-1015.1841969869
 10
1188.3992929861
 20
-1009.9663093118
 10
1196.3820834307
 20
-1005.1118965452
 10
1204.5766470404
 20
-1000.6242856592
 10
1212.9773676706
 20
-996.506552238
 10
1221.5784878871
 20
-992.7615183706
 10
1230.3741129116
 20
-989.3917507161
 10
1239.3582146622
 20
-986.3995587448
 10
1248.5246358843
 20
-983.7869931557
 10
1257.8670943705
 20
-981.5558444708
 10
1267.3791872667
 20
-979.7076418078
 10
1277.0543954593
 20
-978.2436518327
 10
1286.8860880441
 20
-977.1648778909
 10
1296.86752687
 20
-976.4720593204
 10
1306.9918711574
 20
-976.1656709442
 10
1317.2521821865
 20
-976.2459227457
 10
1327.6414280526
 20
-976.7127597244
 10
1338.1524884856
 20
-977.5658619334
 10
1348.7781597296
 20
-978.8046446991
 10
1359.5111594804
 20
-980.4282590218
 10
1370.344131876
 20
-982.4355921572
 10
1381.2696525384
 20
-984.8252683795
 10
1392.2802336613
 20
-987.595649924
 10
1403.3683291425
 20
-990.7448381095
 10
1414.5263397552
 20
-994.2706746397
 10
1425.7466183563
 20
-998.1707430825
 10
1437.0214751272
 20
-1002.4423705258
 10
1448.3431828444
 20
-1007.0826294094
 10
1459.7039821749
 20
-1012.0883395317
 10
1471.0960869943
 20
-1017.456070229
 10
1482.5116897231
 20
-1023.1821427268
 10
1493.9429666773
 20
-1029.2626326611
 10
1505.3820834307
 20
-1035.6933727678
 10
1516.8212001842
 20
-1042.4699557389
 10
1528.2524771384
 20
-1049.5877372428
 10
1539.6680798671
 20
-1057.0418391076
 10
1551.0601846865
 20
-1064.8271526644
 10
1562.420984017
 20
-1072.938342248
 10
1573.7426917342
 20
-1081.3698488544
 10
1585.0175485052
 20
-1090.1158939499
 10
1596.2378271062
 20
-1099.1704834323
 10
1607.3958377189
 20
-1108.527411738
 10
1618.4839332001
 20
-1118.180266096
 10
1629.4945143231
 20
-1128.1224309219
 10
1640.4200349854
 20
-1138.3470923526
 10
1651.2530073811
 20
-1148.847242916
 10
1661.9860071319
 20
-1159.6156863332
 10
1672.6116783759
 20
-1170.6450424512
 10
1683.1227388089
 20
-1181.9277523
 10
1693.511984675
 20
-1193.4560832741
 10
1703.7722957041
 20
-1205.2221344311
 10
1713.8966399915
 20
-1217.2178419074
 10
1723.8780788174
 20
-1229.4349844442
 10
1733.7097714021
 20
-1241.8651890223
 10
1743.3849795948
 20
-1254.4999366004
 10
1752.8970724909
 20
-1267.3305679536
 10
1762.2395309772
 20
-1280.3482896082
 10
1771.4059521992
 20
-1293.5441798678
 10
1780.3900539498
 20
-1306.9091949286
 10
1789.1856789744
 20
-1320.4341750767
 10
1797.7867991908
 20
-1334.1098509664
 10
1806.187519821
 20
-1347.9268499725
 10
1814.3820834307
 20
-1361.8757026141
 10
1822.3648738753
 20
-1375.9468490443
 10
1830.130420149
 20
-1390.1306456022
 10
1837.6734001342
 20
-1404.4173714223
 10
1844.9886442492
 20
-1418.7972350961
 10
1852.0711389912
 20
-1433.2603813836
 10
1858.9160303721
 20
-1447.7968979665
 10
1865.5186272451
 20
-1462.3968222427
 10
1871.8744045202
 20
-1477.0501481533
 10
1877.9790062651
 20
-1491.7468330406
 10
1883.8282486907
 20
-1506.476804531
 10
1889.4181230185
 20
-1521.2299674378
 10
1894.7447982278
 20
-1535.99621068
 10
1899.8046236814
 20
-1550.7654142121
 10
1904.5941316279
 20
-1565.5274559597
 10
1909.1100395775
 20
-1580.272218757
 10
1913.3492525527
 20
-1594.9895972798
 10
1917.3088652086
 20
-1609.6695049721
 10
1920.9861638245
 20
-1624.3018809586
 10
1924.3786281635
 20
-1638.8766969395
 10
1927.4839332001
 20
-1653.383964064
 10
1930.2999507134
 20
-1667.813739776
 10
1932.8247507455
 20
-1682.1561346278
 10
1935.0566029247
 20
-1696.4013190586
 10
1936.993977651
 20
-1710.5395301304
 10
1938.6355471444
 20
-1724.5610782196
 10
1939.9801863553
 20
-1738.4563536575
 10
1941.0269737352
 20
-1752.2158333165
 10
1941.7751918681
 20
-1765.8300871365
 10
1942.2243279629
 20
-1779.2897845879
 10
1942.374074204
 20
-1792.5857010664
 10
1942.2243279629
 20
-1805.7087242151
 10
1941.7751918681
 20
-1818.6498601694
 10
1941.0269737352
 20
-1831.4002397211
 10
1939.9801863553
 20
-1843.951124397
 10
1938.6355471444
 20
-1856.2939124477
 10
1936.993977651
 20
-1868.4201447427
 10
1935.0566029247
 20
-1880.3215105681
 10
1932.8247507455
 20
-1891.9898533224
 10
1930.2999507134
 20
-1903.4171761062
 10
1927.4839332001
 20
-1914.5956472033
 10
1924.3786281635
 20
-1925.517605448
 10
1920.9861638245
 20
-1936.1755654757
 10
1917.3088652086
 20
-1946.5622228529
 10
1913.3492525527
 20
-1956.6704590836
 10
1909.1100395775
 20
-1966.4933464874
 10
1904.5941316279
 20
-1976.0241529481
 10
1899.8046236814
 20
-1985.256346527
 10
1894.7447982278
 20
-1994.1835999397
 10
1889.4181230185
 20
-2002.7997948927
 10
1883.8282486907
 20
-2011.0990262764
 10
1877.9790062651
 20
-2019.0756062121
 10
1871.8744045202
 20
-2026.7240679504
 10
1865.5186272451
 20
-2034.0391696176
 10
1858.9160303721
 20
-2041.0158978085
 10
1852.0711389912
 20
-2047.6494710221
 10
1844.9886442492
 20
-2053.9353429386
 10
1837.6734001342
 20
-2059.8692055354
 10
1830.130420149
 20
-2065.4469920395
 10
1822.3648738753
 20
-2070.6648797146
 10
1814.3820834307
 20
-2075.5192924812
 10
1806.187519821
 20
-2080.0069033673
 10
1797.7867991908
 20
-2084.1246367884
 10
1789.1856789744
 20
-2087.8696706558
 10
1780.3900539498
 20
-2091.2394383103
 10
1771.4059521992
 20
-2094.2316302816
 10
1762.2395309772
 20
-2096.8441958707
 10
1752.8970724909
 20
-2099.0753445557
 10
1743.3849795948
 20
-2100.9235472186
 10
1733.7097714021
 20
-2102.3875371937
 10
1723.8780788174
 20
-2103.4663111355
 10
1713.8966399915
 20
-2104.1591297061
 10
1703.7722957041
 20
-2104.4655180822
 10
1693.511984675
 20
-2104.3852662807
 10
1683.1227388089
 20
-2103.9184293021
 10
1672.6116783759
 20
-2103.065327093
 10
1661.9860071319
 20
-2101.8265443273
 10
1651.2530073811
 20
-2100.2029300046
 10
1640.4200349854
 20
-2098.1955968692
 10
1629.4945143231
 20
-2095.8059206469
 10
1618.4839332001
 20
-2093.0355391025
 10
1607.3958377189
 20
-2089.886350917
 10
1596.2378271062
 20
-2086.3605143867
 10
1585.0175485052
 20
-2082.4604459439
 10
1573.7426917342
 20
-2078.1888185006
 10
1562.420984017
 20
-2073.5485596171
 10
1551.0601846865
 20
-2068.5428494948
 10
1539.6680798671
 20
-2063.1751187974
 10
1528.2524771384
 20
-2057.4490462996
 10
1516.8212001841
 20
-2051.3685563653
 10
1505.3820834307
 20
-2044.9378162586
 10
1493.9429666773
 20
-2038.1612332876
 10
1482.5116897231
 20
-2031.0434517837
 10
1471.0960869943
 20
-2023.5893499188
 10
1459.7039821749
 20
-2015.804036362
 10
1448.3431828444
 20
-2007.6928467784
 10
1437.0214751272
 20
-1999.2613401721
 10
1425.7466183563
 20
-1990.5152950765
 10
1414.5263397552
 20
-1981.4607055942
 10
1403.3683291425
 20
-1972.1037772884
 10
1392.2802336613
 20
-1962.4509229304
 10
1381.2696525384
 20
-1952.5087581045
 10
1370.344131876
 20
-1942.2840966738
 10
1359.5111594804
 20
-1931.7839461104
 10
1348.7781597296
 20
-1921.0155026932
 10
1338.1524884855
 20
-1909.9861465753
 10
1327.6414280526
 20
-1898.7034367264
 10
1317.2521821865
 20
-1887.1751057524
 10
1306.9918711574
 20
-1875.4090545953
 10
1296.86752687
 20
-1863.4133471191
 10
1286.8860880441
 20
-1851.1962045823
 10
1277.0543954593
 20
-1838.7660000041
 10
1267.3791872667
 20
-1826.131252426
 10
1257.8670943705
 20
-1813.3006210728
 10
1248.5246358843
 20
-1800.2828994182
 10
1239.3582146622
 20
-1787.0870091586
 10
1230.3741129116
 20
-1773.7219940978
 10
1221.5784878871
 20
-1760.1970139497
 10
1212.9773676706
 20
-1746.52133806
 10
1204.5766470404
 20
-1732.7043390539
 10
1196.3820834307
 20
-1718.7554864124
 10
1188.3992929861
 20
-1704.6843399822
 10
1180.6337467125
 20
-1690.5005434242
 10
1173.0907667273
 20
-1676.2138176042
 10
1165.7755226122
 20
-1661.8339539303
 10
1158.6930278702
 20
-1647.3708076429
 10
1151.8481364894
 20
-1632.8342910599
 10
1145.2455396164
 20
-1618.2343667837
 10
1138.8897623413
 20
-1603.5810408731
 10
1132.7851605964
 20
-1588.8843559858
 10
1126.9359181707
 20
-1574.1543844954
 10
1121.3460438429
 20
-1559.4012215887
 10
1116.0193686337
 20
-1544.6349783465
 10
1110.95954318
 20
-1529.8657748143
 10
1106.1700352336
 20
-1515.1037330667
 10
1101.6541272839
 20
-1500.3589702695
 10
1097.4149143087
 20
-1485.6415917466
 10
1093.4553016529
 20
-1470.9616840543
 10
1089.778003037
 20
-1456.3293080679
 10
1086.385538698
 20
-1441.754492087
 10
1083.2802336613
 20
-1427.2472249624
 10
1080.4642161481
 20
-1412.8174492505
 10
1077.9394161159
 20
-1398.4750543986
 10
1075.7075639368
 20
-1384.2298699679
 10
1073.7701892105
 20
-1370.0916588961
 10
1072.128619717
 20
-1356.0701108068
 10
1070.7839805061
 20
-1342.1748353689
 10
1069.7371931263
 20
-1328.4153557099
 10
1068.9889749933
 20
-1314.80110189
 10
1068.5398388986
 20
-1301.3414044386
 10
1068.3900926574
 20
-1288.04548796
  0
SPLINE
  5
110
330
1F
100
AcDbEntity
  8
0
  6
Continuous
 62
     7
370
    25
100
AcDbSpline
210
0.0
220
0.0
230
1.0
 70
     8
 71
     3
 72
    13
 73
     9
 74
     0
 42
0.00000001
 43
0.00000001
 40
0.0
 40
0.0
 40
0.0
 40
0.0
 40
0.1929222954414929
 40
0.385837633881725
 40
0.578923146696465
 40
0.7721902540289237
 40
0.9654769579214381
 40
1.0
 40
1.0
 40
1.0
 40
1.0
 10
1490.359426852383
 20
-1021.005488176081
 30
0.0
 10
1489.570318256513
 20
-1021.065463402931
 30
0.0
 10
1487.992129520942
 20
-1021.185411693855
 30
0.0
 10
1485.719917075112
 20
-1020.811497738716
 30
0.0
 10
1483.821670074213
 20
-1020.072905910946
 30
0.0
 10
1482.58858332265
 20
-1019.014200999693
 30
0.0
 10
1482.037461512947
 20
-1018.106320392647
 30
0.0
 10
1482.158613970295
 20
-1017.601377485626
 30
0.0
 10
1482.17697381423
 20
-1017.524856768077
 30
0.0
  0
SPLINE
  5
111
330
1F
100
AcDbEntity
  8
0
  6
Continuous
 62
     7
370
    25
100
AcDbSpline
210
0.0
220
0.0
230
1.0
 70
     8
 71
     3
 72
    12
 73
     8
 74
     0
 42
0.00000001
 43
0.00000001
 40
0.0
 40
0.0
 40
0.0
 40
0.0
 40
0.1230773658716381
 40
0.3651666381544503
 40
0.6070626986554015
 40
0.8489160746538973
 40
1.0
 40
1.0
 40
1.0
 40
1.0
 10
1496.019133770927
 20
-1017.014640168622
 30
0.0
 10
1496.037694671871
 20
-1017.235152773467
 30
0.0
 10
1496.092764275862
 20
-1017.889406673131
 30
0.0
 10
1495.324090749465
 20
-1018.961209535148
 30
0.0
 10
1493.855570255507
 20
-1020.035252543641
 30
0.0
 10
1492.072958489468
 20
-1020.719253799813
 30
0.0
 10
1490.835303662393
 20
-1020.925996033102
 30
0.0
 10
1490.359426852383
 20
-1021.005488176081
 30
0.0
  0
SPLINE
  5
112
330
1F
100
AcDbEntity
  8
0
  6
Continuous
 62
     7
370
    25
100
AcDbSpline
210
0.0
220
0.0
230
1.0
 70
     8
 71
     3
 72
    12
 73
     8
 74
     0
 42
0.00000001
 43
0.00000001
 40
0.0
 40
0.0
 40
0.0
 40
0.0
 40
0.2124724252301448
 40
0.4249350381637578
 40
0.6376079228306674
 40
0.850329822008156
 40
1.0
 40
1.0
 40
1.0
 40
1.0
 10
1538.74082348054
 20
-1050.142393176264
 30
0.0
 10
1537.952066418891
 20
-1050.076973010601
 30
0.0
 10
1536.374588721581
 20
-1049.946135700478
 30
0.0
 10
1534.251359718065
 20
-1049.159661792331
 30
0.0
 10
1532.649410151605
 20
-1048.038947985574
 30
0.0
 10
1531.716969723375
 20
-1046.799143953821
 30
0.0
 10
1531.704290438054
 20
-1045.977636015721
 30
0.0
 10
1531.69905381449
 20
-1045.638348136478
 30
0.0
  0
SPLINE
  5
113
330
1F
100
AcDbEntity
  8
0
  6
Continuous
 62
     7
370
    25
100
AcDbSpline
210
0.0
220
0.0
230
1.0
 70
     8
 71
     3
 72
    12
 73
     8
 74
     0
 42
0.00000001
 43
0.00000001
 40
0.0
 40
0.0
 40
0.0
 40
0.0
 40
0.214310366823995
 40
0.4315718564186032
 40
0.6483741294654467
 40
0.8649483302992588
 40
1.0
 40
1.0
 40
1.0
 40
1.0
 10
1545.610077470756
 20
-1046.043089842284
 30
0.0
 10
1545.53736787682
 20
-1046.521209518007
 30
0.0
 10
1545.390947454422
 20
-1047.48403273137
 30
0.0
 10
1544.197532854846
 20
-1048.740748543354
 30
0.0
 10
1542.430476321041
 20
-1049.664853417594
 30
0.0
 10
1540.495874588363
 20
-1050.114665676123
 30
0.0
 10
1539.227845302848
 20
-1050.134698871758
 30
0.0
 10
1538.74082348054
 20
-1050.142393176264
 30
0.0
  0
LWPOLYLINE
  5
114
330
1F
100
AcDbEntity
  8
0
  6
Continuous
 62
     7
370
    25
100
AcDbPolyline
 90
      238
 70
   128
 43
0.0
 10
1151.8286928375
 20
-1336.2135665575
 10
1151.9529331738
 20
-1325.462765222
 10
1152.3255668655
 20
-1314.8629644906
 10
1152.946332022
 20
-1304.4216140036
 10
1153.8147923638
 20
-1294.146052041
 10
1154.9303375287
 20
-1284.0435003652
 10
1156.2921835009
 20
-1274.1210591453
 10
1157.8993731623
 20
-1264.3857019669
 10
1159.7507769647
 20
-1254.8442709312
 10
1161.8450937239
 20
-1245.5034718464
 10
1164.1808515343
 20
-1236.3698695147
 10
1166.7564088033
 20
-1227.4498831182
 10
1169.5699554046
 20
-1218.7497817079
 10
1172.6195139512
 20
-1210.2756797976
 10
1175.9029411844
 20
-1202.0335330662
 10
1179.4179294803
 20
-1194.0291341727
 10
1183.1620084721
 20
-1186.2681086844
 10
1187.1325467853
 20
-1178.7559111236
 10
1191.3267538882
 20
-1171.4978211338
 10
1195.7416820522
 20
-1164.4989397696
 10
1200.374228424
 20
-1157.7641859109
 10
1205.221137206
 20
-1151.2982928067
 10
1210.279001945
 20
-1145.1058047479
 10
1215.5442679256
 20
-1139.1910738738
 10
1221.0132346689
 20
-1133.5582571131
 10
1226.6820585334
 20
-1128.2113132631
 10
1232.546755416
 20
-1123.1540002064
 10
1238.6032035521
 20
-1118.3898722705
 10
1244.8471464125
 20
-1113.9222777298
 10
1251.2741956951
 20
-1109.754356452
 10
1257.8798344088
 20
-1105.8890376916
 10
1264.659420048
 20
-1102.3290380313
 10
1271.6081878558
 20
-1099.0768594727
 10
1278.7212541722
 20
-1096.1347876775
 10
1285.993619867
 20
-1093.5048903618
 10
1293.4201738525
 20
-1091.1890158422
 10
1300.9956966764
 20
-1089.1887917374
 10
1308.7148641893
 20
-1087.5056238237
 10
1316.5722512872
 20
-1086.1406950476
 10
1324.562335724
 20
-1085.0949646939
 10
1332.6795019927
 20
-1084.3691677119
 10
1340.9180452719
 20
-1083.9638141985
 10
1349.2721754353
 20
-1083.8791890399
 10
1357.7360211211
 20
-1084.1153517117
 10
1366.3036338584
 20
-1084.6721362363
 10
1374.9689922477
 20
-1085.5491513004
 10
1383.7260061931
 20
-1086.7457805295
 10
1392.5685211823
 20
-1088.2611829212
 10
1401.4903226118
 20
-1090.0942934363
 10
1410.4851401551
 20
-1092.2438237474
 10
1419.5466521693
 20
-1094.7082631443
 10
1428.6684901379
 20
-1097.4858795956
 10
1437.8442431466
 20
-1100.5747209661
 10
1447.0674623893
 20
-1103.9726163889
 10
1456.3316657002
 20
-1107.6771777908
 10
1465.6303421095
 20
-1111.685801571
 10
1474.9569564191
 20
-1115.9956704308
 10
1484.3049537963
 20
-1120.6037553534
 10
1493.6677643799
 20
-1125.5068177331
 10
1503.0388078979
 20
-1130.7014116512
 10
1512.4114982921
 20
-1136.183886298
 10
1521.779248347
 20
-1141.9503885382
 10
1531.135474319
 20
-1147.9968656195
 10
1540.4736005639
 20
-1154.3190680205
 10
1549.7870641581
 20
-1160.9125524374
 10
1559.0693195111
 20
-1167.7726849069
 10
1568.313842966
 20
-1174.894644063
 10
1577.514137384
 20
-1182.2734245252
 10
1586.6637367111
 20
-1189.9038404167
 10
1595.7562105221
 20
-1197.780529009
 10
1604.7851685404
 20
-1205.8979544907
 10
1613.7442651286
 20
-1214.2504118582
 10
1622.6272037489
 20
-1222.8320309254
 10
1631.4277413878
 20
-1231.6367804491
 10
1640.1396929441
 20
-1240.6584723679
 10
1648.7569355756
 20
-1249.8907661512
 10
1657.2734130026
 20
-1259.3271732555
 10
1665.6831397642
 20
-1268.9610616845
 10
1673.9802054245
 20
-1278.7856606501
 10
1682.1587787274
 20
-1288.7940653311
 10
1690.2131116939
 20
-1298.9792417259
 10
1698.1375436626
 20
-1309.3340315959
 10
1705.9265052675
 20
-1319.8511574968
 10
1713.5745223528
 20
-1330.5232278928
 10
1721.0762198194
 20
-1341.3427423517
 10
1728.4263254034
 20
-1352.3020968163
 10
1735.619673381
 20
-1363.3935889484
 10
1742.6512081989
 20
-1374.6094235423
 10
1749.5159880279
 20
-1385.9417180031
 10
1756.2091882357
 20
-1397.3825078869
 10
1762.7261047779
 20
-1408.9237524983
 10
1769.0621575036
 20
-1420.5573405411
 10
1775.212893375
 20
-1432.2750958194
 10
1781.1739895967
 20
-1444.0687829838
 10
1786.9412566537
 20
-1455.9301133192
 10
1792.5106412562
 20
-1467.8507505704
 10
1797.8782291878
 20
-1479.8223168004
 10
1803.040248057
 20
-1491.8363982792
 10
1807.9930699478
 20
-1503.8845513964
 10
1812.7332139703
 20
-1515.9583085958
 10
1817.2573487063
 20
-1528.0491843266
 10
1821.5622945509
 20
-1540.1486810067
 10
1825.6450259475
 20
-1552.2482949951
 10
1829.5026735138
 20
-1564.3395225686
 10
1833.1325260585
 20
-1576.4138658979
 10
1836.5320324869
 20
-1588.46283902
 10
1839.6988035936
 20
-1600.4779738025
 10
1842.6306137418
 20
-1612.4508258948
 10
1845.3254024277
 20
-1624.3729806631
 10
1847.7812757283
 20
-1636.236059104
 10
1849.9965076324
 20
-1648.0317237336
 10
1851.9695412542
 20
-1659.751684447
 10
1853.6989899268
 20
-1671.3877043448
 10
1855.1836381775
 20
-1682.9316055219
 10
1856.4224425812
 20
-1694.3752748154
 10
1857.4145324947
 20
-1705.7106695058
 10
1858.1592106676
 20
-1716.9298229705
 10
1858.6559537331
 20
-1728.0248502822
 10
1858.9044125755
 20
-1738.9879537504
 10
1858.9044125755
 20
-1749.8114284023
 10
1858.6559537331
 20
-1760.4876673972
 10
1858.1592106676
 20
-1771.0091673733
 10
1857.4145324947
 20
-1781.3685337206
 10
1856.4224425812
 20
-1791.5584857785
 10
1855.1836381775
 20
-1801.5718619519
 10
1853.6989899268
 20
-1811.4016247453
 10
1851.9695412542
 20
-1821.0408657083
 10
1849.9965076324
 20
-1830.482810291
 10
1847.7812757283
 20
-1839.7208226052
 10
1845.3254024277
 20
-1848.7484100884
 10
1842.6306137418
 20
-1857.5592280666
 10
1839.6988035936
 20
-1866.1470842134
 10
1836.5320324869
 20
-1874.5059429022
 10
1833.1325260585
 20
-1882.6299294478
 10
1829.5026735138
 20
-1890.5133342355
 10
1825.6450259475
 20
-1898.1506167339
 10
1821.5622945509
 20
-1905.5364093883
 10
1817.2573487063
 20
-1912.6655213938
 10
1812.7332139703
 20
-1919.5329423428
 10
1807.9930699478
 20
-1926.1338457469
 10
1803.040248057
 20
-1932.4635924286
 10
1797.8782291878
 20
-1938.5177337819
 10
1792.5106412562
 20
-1944.292014899
 10
1786.9412566537
 20
-1949.7823775604
 10
1781.1739895967
 20
-1954.9849630871
 10
1775.212893375
 20
-1959.8961150529
 10
1769.0621575036
 20
-1964.5123818535
 10
1762.7261047779
 20
-1968.8305191329
 10
1756.2091882357
 20
-1972.8474920633
 10
1749.5159880279
 20
-1976.5604774781
 10
1742.6512081989
 20
-1979.966865856
 10
1735.619673381
 20
-1983.0642631549
 10
1728.4263254034
 20
-1985.8504924947
 10
1721.0762198194
 20
-1988.3235956869
 10
1713.5745223528
 20
-1990.4818346113
 10
1705.9265052675
 20
-1992.323692437
 10
1698.1375436626
 20
-1993.847874689
 10
1690.2131116939
 20
-1995.0533101575
 10
1682.1587787274
 20
-1995.939151651
 10
1673.9802054245
 20
-1996.5047765917
 10
1665.6831397642
 20
-1996.7497874531
 10
1657.2734130026
 20
-1996.6740120393
 10
1648.7569355756
 20
-1996.2775036058
 10
1640.1396929441
 20
-1995.5605408227
 10
1631.4277413878
 20
-1994.523627578
 10
1622.6272037489
 20
-1993.1674926243
 10
1613.7442651286
 20
-1991.4930890661
 10
1604.7851685404
 20
-1989.5015936901
 10
1595.7562105221
 20
-1987.194406138
 10
1586.6637367111
 20
-1984.5731479232
 10
1577.514137384
 20
-1981.6396612907
 10
1568.313842966
 20
-1978.3960079227
 10
1559.0693195111
 20
-1974.8444674896
 10
1549.7870641581
 20
-1970.9875360477
 10
1540.4736005639
 20
-1966.8279242848
 10
1531.135474319
 20
-1962.3685556156
 10
1521.779248347
 20
-1957.6125641266
 10
1512.4114982921
 20
-1952.5632923737
 10
1503.0388078979
 20
-1947.2242890329
 10
1493.6677643799
 20
-1941.5993064063
 10
1484.3049537963
 20
-1935.6922977851
 10
1474.9569564191
 20
-1929.5074146708
 10
1465.6303421095
 20
-1923.0490038578
 10
1456.3316657002
 20
-1916.3216043786
 10
1447.0674623893
 20
-1909.3299443133
 10
1437.8442431466
 20
-1902.0789374666
 10
1428.6684901378
 20
-1894.573679915
 10
1419.5466521693
 20
-1886.8194464245
 10
1410.4851401551
 20
-1878.821686744
 10
1401.4903226118
 20
-1870.5860217747
 10
1392.5685211823
 20
-1862.11823962
 10
1383.7260061931
 20
-1853.4242915174
 10
1374.9689922477
 20
-1844.5102876559
 10
1366.3036338584
 20
-1835.3824928821
 10
1357.7360211211
 20
-1826.0473222965
 10
1349.2721754353
 20
-1816.5113367454
 10
1340.9180452719
 20
-1806.7812382098
 10
1332.6795019927
 20
-1796.8638650953
 10
1324.562335724
 20
-1786.7661874255
 10
1316.5722512872
 20
-1776.495301944
 10
1308.7148641893
 20
-1766.0584271265
 10
1300.9956966764
 20
-1755.4628981074
 10
1293.4201738525
 20
-1744.7161615249
 10
1285.993619867
 20
-1733.8257702873
 10
1278.7212541722
 20
-1722.7993782648
 10
1271.6081878558
 20
-1711.6447349101
 10
1264.659420048
 20
-1700.3696798123
 10
1257.8798344088
 20
-1688.982137187
 10
1251.2741956951
 20
-1677.4901103069
 10
1244.8471464125
 20
-1665.9016758774
 10
1238.6032035521
 20
-1654.2249783601
 10
1232.546755416
 20
-1642.4682242486
 10
1226.6820585334
 20
-1630.639676301
 10
1221.0132346689
 20
-1618.7476477331
 10
1215.5442679255
 20
-1606.800496375
 10
1210.279001945
 20
-1594.8066187979
 10
1205.221137206
 20
-1582.7744444127
 10
1200.374228424
 20
-1570.7124295456
 10
1195.7416820522
 20
-1558.6290514948
 10
1191.3267538882
 20
-1546.5328025729
 10
1187.1325467853
 20
-1534.4321841382
 10
1183.1620084721
 20
-1522.3357006202
 10
1179.4179294803
 20
-1510.2518535419
 10
1175.9029411844
 20
-1498.1891355456
 10
1172.6195139512
 20
-1486.1560244238
 10
1169.5699554046
 20
-1474.160977161
 10
1166.7564088033
 20
-1462.21242399
 10
1164.1808515343
 20
-1450.3187624673
 10
1161.8450937239
 20
-1438.4883515708
 10
1159.7507769647
 20
-1426.7295058254
 10
1157.8993731623
 20
-1415.0504894593
 10
1156.2921835009
 20
-1403.4595105959
 10
1154.9303375287
 20
-1391.9647154848
 10
1153.8147923638
 20
-1380.5741827771
 10
1152.946332022
 20
-1369.2959178471
 10
1152.3255668655
 20
-1358.1378471661
 10
1151.9529331738
 20
-1347.107812732
 10
1151.8286928375
 20
-1336.2135665575
  0
LWPOLYLINE
  5
115
330
1F
100
AcDbEntity
  8
0
  6
Continuous
 62
     7
370
    25
100
AcDbPolyline
 90
       44
 70
   128
 43
0.0
 10
1849.8185664889
 20
-1647.0372373996
 10
1843.8107208813
 20
-1641.8970128777
 10
1834.7492088671
 20
-1633.8992531972
 10
1825.7543913237
 20
-1625.6635882279
 10
1816.8325898942
 20
-1617.1958060732
 10
1807.9900749051
 20
-1608.5018579706
 10
1799.2330609596
 20
-1599.5878541091
 10
1790.5677025703
 20
-1590.4600593353
 10
1782.000089833
 20
-1581.1248887496
 10
1773.5362441472
 20
-1571.5889031986
 10
1765.1821139838
 20
-1561.858804663
 10
1756.9435707046
 20
-1551.9414315485
 10
1748.8264044359
 20
-1541.8437538787
 10
1740.8363199991
 20
-1531.5728683972
 10
1732.9789329012
 20
-1521.1359935797
 10
1725.2597653883
 20
-1510.5404645606
 10
1717.6842425645
 20
-1499.7937279781
 10
1710.2576885789
 20
-1488.9033367405
 10
1702.9853228841
 20
-1477.876944718
 10
1695.8722565677
 20
-1466.7223013633
 10
1688.9234887599
 20
-1455.4472462655
 10
1682.1439031207
 20
-1444.0597036402
 10
1675.538264407
 20
-1432.5676767601
 10
1669.1112151244
 20
-1420.9792423306
 10
1662.867272264
 20
-1409.3025448133
 10
1656.8108241279
 20
-1397.5457907018
 10
1650.9461272454
 20
-1385.7172427542
 10
1645.2773033808
 20
-1373.8252141862
 10
1639.8083366375
 20
-1361.8780628281
 10
1634.5430706569
 20
-1349.8841852511
 10
1629.485205918
 20
-1337.8520108659
 10
1624.6382971359
 20
-1325.7899959988
 10
1620.0057507641
 20
-1313.706617948
 10
1615.5908226001
 20
-1301.6103690261
 10
1611.3966154973
 20
-1289.5097505914
 10
1607.426077184
 20
-1277.4132670734
 10
1603.6819981923
 20
-1265.3294199951
 10
1600.1670098963
 20
-1253.2667019988
 10
1596.8835826631
 20
-1241.233590877
 10
1593.8340241165
 20
-1229.2385436141
 10
1591.0204775152
 20
-1217.2899904432
 10
1588.4449202463
 20
-1205.3963289205
 10
1586.1091624358
 20
-1193.565918024
 10
1585.2096690845
 20
-1188.67151808
  0
LWPOLYLINE
  5
116
330
1F
100
AcDbEntity
  8
0
  6
Continuous
 62
     7
370
    25
100
AcDbPolyline
 90
      121
 70
   128
 43
0.0
 10
1622.1952474067
 20
-759.3038218998
 10
1628.8407157523
 20
-755.7018521124
 10
1637.2414363826
 20
-751.5841186912
 10
1645.842556599
 20
-747.8390848238
 10
1654.6381816236
 20
-744.4693171693
 10
1663.6222833741
 20
-741.477125198
 10
1672.7887045962
 20
-738.8645596089
 10
1682.1311630825
 20
-736.633410924
 10
1691.6432559786
 20
-734.785208261
 10
1701.3184641713
 20
-733.3212182859
 10
1711.150156756
 20
-732.2424443441
 10
1721.1315955819
 20
-731.5496257736
 10
1731.2559398693
 20
-731.2432373974
 10
1741.5162508984
 20
-731.3234891989
 10
1751.9054967645
 20
-731.7903261775
 10
1762.4165571975
 20
-732.6434283866
 10
1773.0422284415
 20
-733.8822111523
 10
1783.7752281923
 20
-735.505825475
 10
1794.608200588
 20
-737.5131586104
 10
1805.5337212503
 20
-739.9028348327
 10
1816.5443023733
 20
-742.6732163771
 10
1827.6323978545
 20
-745.8224045626
 10
1838.7904084672
 20
-749.3482410929
 10
1850.0106870682
 20
-753.2483095357
 10
1861.2855438392
 20
-757.519936979
 10
1872.6072515564
 20
-762.1601958626
 10
1883.9680508869
 20
-767.1659059848
 10
1895.3601557063
 20
-772.5336366822
 10
1906.775758435
 20
-778.25970918
 10
1918.2070353892
 20
-784.3401991143
 10
1929.6461521427
 20
-790.770939221
 10
1941.0852688961
 20
-797.547522192
 10
1952.5165458503
 20
-804.6653036959
 10
1963.932148579
 20
-812.1194055608
 10
1975.3242533985
 20
-819.9047191176
 10
1986.685052729
 20
-828.0159087012
 10
1998.0067604461
 20
-836.4474153076
 10
2009.2816172171
 20
-845.1934604031
 10
2020.5018958182
 20
-854.2480498854
 10
2031.6599064308
 20
-863.6049781912
 10
2042.7480019121
 20
-873.2578325492
 10
2053.758583035
 20
-883.1999973751
 10
2064.6841036973
 20
-893.4246588058
 10
2075.517076093
 20
-903.9248093692
 10
2086.2500758438
 20
-914.6932527864
 10
2096.8757470878
 20
-925.7226089044
 10
2107.3868075208
 20
-937.0053187532
 10
2117.7760533869
 20
-948.5336497272
 10
2128.036364416
 20
-960.2997008843
 10
2138.1607087034
 20
-972.2954083605
 10
2148.1421475293
 20
-984.5125508974
 10
2157.9738401141
 20
-996.9427554755
 10
2167.6490483067
 20
-1009.5775030536
 10
2177.1611412028
 20
-1022.4081344068
 10
2186.5035996891
 20
-1035.4258560614
 10
2195.6700209112
 20
-1048.621746321
 10
2204.6541226618
 20
-1061.9867613818
 10
2213.4497476863
 20
-1075.5117415299
 10
2222.0508679028
 20
-1089.1874174196
 10
2230.451588533
 20
-1103.0044164257
 10
2238.6461521427
 20
-1116.9532690672
 10
2246.6289425872
 20
-1131.0244154975
 10
2254.3944888609
 20
-1145.2082120554
 10
2261.9374688461
 20
-1159.4949378754
 10
2269.2527129612
 20
-1173.8748015493
 10
2276.3352077032
 20
-1188.3379478367
 10
2283.180099084
 20
-1202.8744644197
 10
2289.782695957
 20
-1217.4743886959
 10
2296.1384732321
 20
-1232.1277146065
 10
2302.243074977
 20
-1246.8243994938
 10
2308.0923174027
 20
-1261.5543709842
 10
2313.6821917304
 20
-1276.3075338909
 10
2319.0088669397
 20
-1291.0737771331
 10
2324.0686923934
 20
-1305.8429806653
 10
2328.8582003398
 20
-1320.6050224129
 10
2333.3741082895
 20
-1335.3497852101
 10
2337.6133212646
 20
-1350.067163733
 10
2341.5729339205
 20
-1364.7470714253
 10
2345.2502325364
 20
-1379.3794474117
 10
2348.6426968754
 20
-1393.9542633927
 10
2351.748001912
 20
-1408.4615305172
 10
2354.5640194253
 20
-1422.8913062291
 10
2357.0888194574
 20
-1437.233701081
 10
2359.3206716366
 20
-1451.4788855117
 10
2361.2580463629
 20
-1465.6170965836
 10
2362.8996158563
 20
-1479.6386446728
 10
2364.2442550673
 20
-1493.5339201107
 10
2365.2910424471
 20
-1507.2933997697
 10
2366.0392605801
 20
-1520.9076535896
 10
2366.4883966748
 20
-1534.3673510411
 10
2366.6381429159
 20
-1547.6632675196
 10
2366.4883966748
 20
-1560.7862906683
 10
2366.0392605801
 20
-1573.7274266226
 10
2365.2910424471
 20
-1586.4778061743
 10
2364.2442550673
 20
-1599.0286908502
 10
2362.8996158563
 20
-1611.3714789009
 10
2361.2580463629
 20
-1623.4977111959
 10
2359.3206716366
 20
-1635.3990770213
 10
2357.0888194574
 20
-1647.0674197756
 10
2354.5640194253
 20
-1658.4947425594
 10
2351.748001912
 20
-1669.6732136565
 10
2348.6426968754
 20
-1680.5951719012
 10
2345.2502325364
 20
-1691.2531319289
 10
2341.5729339205
 20
-1701.6397893061
 10
2337.6133212646
 20
-1711.7480255367
 10
2333.3741082895
 20
-1721.5709129406
 10
2328.8582003398
 20
-1731.1017194013
 10
2324.0686923934
 20
-1740.3339129802
 10
2319.0088669397
 20
-1749.2611663929
 10
2313.6821917304
 20
-1757.8773613459
 10
2308.0923174027
 20
-1766.1765927296
 10
2302.243074977
 20
-1774.1531726653
 10
2296.1384732321
 20
-1781.8016344036
 10
2289.782695957
 20
-1789.1167360708
 10
2283.180099084
 20
-1796.0934642617
 10
2276.3352077032
 20
-1802.7270374753
 10
2269.2527129612
 20
-1809.0129093918
 10
2261.9374688461
 20
-1814.9467719886
 10
2254.3944888609
 20
-1820.5245584927
 10
2246.6289425872
 20
-1825.7424461678
 10
2240.1376043083
 20
-1829.7272287041
  0
SPLINE
  5
117
330
1F
100
AcDbEntity
  8
0
  6
Continuous
 62
     7
370
    25
100
AcDbSpline
210
0.0
220
0.0
230
1.0
 70
     8
 71
     3
 72
    12
 73
     8
 74
     0
 42
0.00000001
 43
0.00000001
 40
0.0
 40
0.0
 40
0.0
 40
0.0
 40
0.2120447892740361
 40
0.4240829297710876
 40
0.636243070307437
 40
0.8482923399959663
 40
1.0
 40
1.0
 40
1.0
 40
1.0
 10
1946.067043109272
 20
-814.9647762534574
 30
0.0
 10
1945.277570158416
 20
-814.8959274519866
 30
0.0
 10
1943.698649011046
 20
-814.7582320078358
 30
0.0
 10
1941.569095704225
 20
-813.9693189776173
 30
0.0
 10
1939.958540243308
 20
-812.8529603878619
 30
0.0
 10
1939.015396382375
 20
-811.6173317881228
 30
0.0
 10
1938.997767040537
 20
-810.8001632008244
 30
0.0
 10
1938.990414586248
 20
-810.4593566784235
 30
0.0
  0
SPLINE
  5
118
330
1F
100
AcDbEntity
  8
0
  6
Continuous
 62
     7
370
    25
100
AcDbSpline
210
0.0
220
0.0
230
1.0
 70
     8
 71
     3
 72
    12
 73
     8
 74
     0
 42
0.00000001
 43
0.00000001
 40
0.0
 40
0.0
 40
0.0
 40
0.0
 40
0.2121681292595254
 40
0.4298242512852039
 40
0.6471202831020847
 40
0.8643672989710394
 40
1.0
 40
1.0
 40
1.0
 40
1.0
 10
1952.899143854047
 20
-810.9709233588896
 30
0.0
 10
1952.830155394103
 20
-811.4368161360371
 30
0.0
 10
1952.690394001822
 20
-812.3806525869473
 30
0.0
 10
1951.510321014567
 20
-813.609480261979
 30
0.0
 10
1949.752160961931
 20
-814.5124459021617
 30
0.0
 10
1947.822010680063
 20
-814.9465977041293
 30
0.0
 10
1946.554299897656
 20
-814.959729082381
 30
0.0
 10
1946.067043109272
 20
-814.9647762534574
 30
0.0
  0
SPLINE
  5
119
330
1F
100
AcDbEntity
  8
0
  6
Continuous
 62
     7
370
    25
100
AcDbSpline
210
0.0
220
0.0
230
1.0
 70
     8
 71
     3
 72
    13
 73
     9
 74
     0
 42
0.00000001
 43
0.00000001
 40
0.0
 40
0.0
 40
0.0
 40
0.0
 40
0.1920290629534206
 40
0.3840511025090332
 40
0.5762560351453652
 40
0.7687388959376152
 40
0.9613903226984749
 40
0.9999999999999999
 40
0.9999999999999999
 40
0.9999999999999999
 40
0.9999999999999999
 10
1897.696780125208
 20
-785.8309984010584
 30
0.0
 10
1896.908654595826
 20
-785.8871044609596
 30
0.0
 10
1895.332432362487
 20
-785.9993145287021
 30
0.0
 10
1893.056281185173
 20
-785.622766102168
 30
0.0
 10
1891.149814630894
 20
-784.8886641101814
 30
0.0
 10
1889.900802570864
 20
-783.8417639987624
 30
0.0
 10
1889.337400537101
 20
-782.9365395711391
 30
0.0
 10
1889.456109073948
 20
-782.4301710788837
 30
0.0
 10
1889.475927790628
 20
-782.3456314665658
 30
0.0
  0
SPLINE
  5
11A
330
1F
100
AcDbEntity
  8
0
  6
Continuous
 62
     7
370
    25
100
AcDbSpline
210
0.0
220
0.0
230
1.0
 70
     8
 71
     3
 72
    12
 73
     8
 74
     0
 42
0.00000001
 43
0.00000001
 40
0.0
 40
0.0
 40
0.0
 40
0.0
 40
0.118537426967146
 40
0.3619891754447199
 40
0.6051778919640717
 40
0.8481925528896274
 40
1.0
 40
1.0
 40
1.0
 40
1.0
 10
1903.312573448116
 20
-781.942688236337
 30
0.0
 10
1903.332624461268
 20
-782.1510399941491
 30
0.0
 10
1903.393856174352
 20
-782.7873038556361
 30
0.0
 10
1902.640504484567
 20
-783.8328435810938
 30
0.0
 10
1901.184857965723
 20
-784.8870553768904
 30
0.0
 10
1899.408410985043
 20
-785.5551772022199
 30
0.0
 10
1898.172126378957
 20
-785.7543986057117
 30
0.0
 10
1897.696780125208
 20
-785.8309984010584
 30
0.0
  0
LWPOLYLINE
  5
11B
330
1F
100
AcDbEntity
  8
0
  6
Continuous
 62
     7
370
    25
100
AcDbPolyline
 90
       29
 70
   128
 43
0.0
 10
1543.5658496148
 20
-1040.5915560386
 10
1544.5431715411
 20
-1041.2990353686
 10
1545.2232854587
 20
-1042.1143221218
 10
1545.5720876157
 20
-1042.9965344163
 10
1545.5720876157
 20
-1043.9014344437
 10
1545.2232854587
 20
-1044.7836467382
 10
1544.5431715411
 20
-1045.5989334915
 10
1543.5658496148
 20
-1046.3064128214
 10
1542.3403266821
 20
-1046.8706087602
 10
1540.9280555802
 20
-1047.2632301676
 10
1539.3998534792
 20
-1047.4645893669
 10
1537.8323508138
 20
-1047.4645893669
 10
1536.3041487128
 20
-1047.2632301676
 10
1534.8918776109
 20
-1046.8706087602
 10
1533.6663546782
 20
-1046.3064128214
 10
1532.6890327519
 20
-1045.5989334915
 10
1532.0089188343
 20
-1044.7836467382
 10
1531.6601166772
 20
-1043.9014344437
 10
1531.6601166772
 20
-1042.9965344163
 10
1532.0089188343
 20
-1042.1143221218
 10
1532.6890327519
 20
-1041.2990353686
 10
1533.6663546782
 20
-1040.5915560386
 10
1534.8918776109
 20
-1040.0273600998
 10
1536.3041487128
 20
-1039.6347386924
 10
1537.8323508138
 20
-1039.4333794932
 10
1539.3998534792
 20
-1039.4333794932
 10
1540.9280555802
 20
-1039.6347386924
 10
1542.3403266821
 20
-1040.0273600998
 10
1543.5658496148
 20
-1040.5915560386
  0
LWPOLYLINE
  5
11C
330
1F
100
AcDbEntity
  8
0
  6
Continuous
 62
     7
370
    25
100
AcDbPolyline
 90
       24
 70
   128
 43
0.0
 10
1542.1516360524
 20
-1041.4079641505
 10
1542.9744044967
 20
-1042.0343114003
 10
1543.4739375935
 20
-1042.765578477
 10
1543.6131872583
 20
-1043.5475306469
 10
1543.3818259806
 20
-1044.3221740948
 10
1542.7970127678
 20
-1045.0320570597
 10
1541.9021205406
 20
-1045.6245307698
 10
1540.7635193616
 20
-1046.0556541603
 10
1539.4656540716
 20
-1046.2934527817
 10
1538.1047814018
 20
-1046.320290198
 10
1536.7818310524
 20
-1046.1341760008
 10
1535.5949201989
 20
-1045.7489134287
 10
1534.6320765894
 20
-1045.1930756443
 10
1533.9647099298
 20
-1044.5078865932
 10
1533.6423157522
 20
-1043.7441636129
 10
1533.6888045579
 20
-1042.9585485428
 10
1534.1007284849
 20
-1042.209306859
 10
1534.8475370199
 20
-1041.5520063894
 10
1535.8738427902
 20
-1041.035396103
 10
1537.1035293921
 20
-1040.6977906214
 10
1538.4453965956
 20
-1040.5642285987
 10
1539.7999242488
 20
-1040.6446157191
 10
1541.0666532324
 20
-1040.9329900377
 10
1542.1516360524
 20
-1041.4079641505
  0
SPLINE
  5
11D
330
1F
100
AcDbEntity
  8
0
  6
Continuous
 62
     7
370
    25
100
AcDbSpline
210
0.0
220
0.0
230
1.0
 70
     8
 71
     3
 72
    15
 73
    11
 74
     0
 42
0.00000001
 43
0.00000001
 40
0.0
 40
0.0
 40
0.0
 40
0.0
 40
0.0136738079515925
 40
0.1596689889617955
 40
0.3055271838539834
 40
0.4513308614578078
 40
0.5971804452935203
 40
0.7431744313721594
 40
0.8893760799551862
 40
1.0
 40
1.0
 40
1.0
 40
1.0
 10
1534.031017421037
 20
-1044.520009591495
 30
0.0
 10
1534.04391401934
 20
-1044.489311594364
 30
0.0
 10
1534.194507535015
 20
-1044.130851231131
 30
0.0
 10
1534.984020274862
 20
-1043.57237569601
 30
0.0
 10
1536.316402581451
 20
-1042.978023960095
 30
0.0
 10
1537.961377661473
 20
-1042.715615425801
 30
0.0
 10
1539.669262447281
 20
-1042.798617937369
 30
0.0
 10
1541.246880570253
 20
-1043.229797550889
 30
0.0
 10
1542.480066014394
 20
-1043.881770089311
 30
0.0
 10
1542.918395995135
 20
-1044.441874874922
 30
0.0
 10
1543.107200330318
 20
-1044.683131955949
 30
0.0
  0
LWPOLYLINE
  5
11E
330
1F
100
AcDbEntity
  8
0
  6
Continuous
 62
     7
370
    25
100
AcDbPolyline
 90
       29
 70
   128
 43
0.0
 10
1484.1688799951
 20
-1017.7321289076
 10
1483.1915580688
 20
-1017.0246495777
 10
1482.5114441513
 20
-1016.2093628244
 10
1482.1626419942
 20
-1015.3271505299
 10
1482.1626419942
 20
-1014.4222505025
 10
1482.5114441513
 20
-1013.540038208
 10
1483.1915580688
 20
-1012.7247514548
 10
1484.1688799951
 20
-1012.0172721248
 10
1485.3944029278
 20
-1011.453076186
 10
1486.8066740298
 20
-1011.0604547786
 10
1488.3348761307
 20
-1010.8590955794
 10
1489.9023787962
 20
-1010.8590955794
 10
1491.4305808971
 20
-1011.0604547786
 10
1492.842851999
 20
-1011.453076186
 10
1494.0683749317
 20
-1012.0172721248
 10
1495.045696858
 20
-1012.7247514548
 10
1495.7258107756
 20
-1013.540038208
 10
1496.0746129327
 20
-1014.4222505025
 10
1496.0746129327
 20
-1015.3271505299
 10
1495.7258107756
 20
-1016.2093628244
 10
1495.045696858
 20
-1017.0246495777
 10
1494.0683749317
 20
-1017.7321289076
 10
1492.842851999
 20
-1018.2963248464
 10
1491.4305808971
 20
-1018.6889462538
 10
1489.9023787962
 20
-1018.8903054531
 10
1488.3348761307
 20
-1018.8903054531
 10
1486.8066740298
 20
-1018.6889462538
 10
1485.3944029278
 20
-1018.2963248464
 10
1484.1688799951
 20
-1017.7321289076
  0
LWPOLYLINE
  5
11F
330
1F
100
AcDbEntity
  8
0
  6
Continuous
 62
     7
370
    25
100
AcDbPolyline
 90
       24
 70
   128
 43
0.0
 10
1485.5830935575
 20
-1016.9157207958
 10
1484.7603251133
 20
-1016.2893735459
 10
1484.2607920164
 20
-1015.5581064692
 10
1484.1215423516
 20
-1014.7761542993
 10
1484.3529036294
 20
-1014.0015108515
 10
1484.9377168422
 20
-1013.2916278865
 10
1485.8326090693
 20
-1012.6991541764
 10
1486.9712102483
 20
-1012.2680307859
 10
1488.2690755383
 20
-1012.0302321645
 10
1489.6299482081
 20
-1012.0033947483
 10
1490.9528985575
 20
-1012.1895089454
 10
1492.139809411
 20
-1012.5747715175
 10
1493.1026530205
 20
-1013.1306093019
 10
1493.7700196801
 20
-1013.815798353
 10
1494.0924138577
 20
-1014.5795213334
 10
1494.045925052
 20
-1015.3651364034
 10
1493.6340011251
 20
-1016.1143780872
 10
1492.8871925901
 20
-1016.7716785568
 10
1491.8608868197
 20
-1017.2882888432
 10
1490.6312002178
 20
-1017.6258943248
 10
1489.2893330144
 20
-1017.7594563475
 10
1487.9348053611
 20
-1017.6790692271
 10
1486.6680763775
 20
-1017.3906949085
 10
1485.5830935575
 20
-1016.9157207958
  0
SPLINE
  5
120
330
1F
100
AcDbEntity
  8
0
  6
Continuous
 62
     7
370
    25
100
AcDbSpline
210
0.0
220
0.0
230
1.0
 70
     8
 71
     3
 72
    15
 73
    11
 74
     0
 42
0.00000001
 43
0.00000001
 40
0.0
 40
0.0
 40
0.0
 40
0.0
 40
0.0780547259337275
 40
0.227633437335275
 40
0.3771790847576474
 40
0.5269087358899376
 40
0.6769350363518638
 40
0.8272056283075012
 40
0.9775494584149967
 40
1.0
 40
1.0
 40
1.0
 40
1.0
 10
1484.741740304441
 20
-1016.182506135068
 30
0.0
 10
1484.865443806633
 20
-1016.032765392304
 30
0.0
 10
1485.226204197209
 20
-1015.596071783084
 30
0.0
 10
1486.340556875646
 20
-1015.036663789337
 30
0.0
 10
1487.886127127688
 20
-1014.595428354687
 30
0.0
 10
1489.592011164791
 20
-1014.458862514087
 30
0.0
 10
1491.25327551126
 20
-1014.633088677356
 30
0.0
 10
1492.62737799819
 20
-1015.11837568102
 30
0.0
 10
1493.462495113037
 20
-1015.610127373816
 30
0.0
 10
1493.638698318723
 20
-1015.94636694378
 30
0.0
 10
1493.661591757658
 20
-1015.990053322996
 30
0.0
  0
LWPOLYLINE
  5
121
330
1F
100
AcDbEntity
  8
0
  6
Continuous
 62
     7
370
    25
100
AcDbPolyline
 90
       29
 70
   128
 43
0.0
 10
1940.9598606416
 20
-811.1808766164
 10
1939.9825387153
 20
-810.4733972865
 10
1939.3024247978
 20
-809.6581105333
 10
1938.9536226407
 20
-808.7758982388
 10
1938.9536226407
 20
-807.8709982114
 10
1939.3024247978
 20
-806.9887859169
 10
1939.9825387153
 20
-806.1734991636
 10
1940.9598606416
 20
-805.4660198337
 10
1942.1853835743
 20
-804.9018238949
 10
1943.5976546763
 20
-804.5092024875
 10
1945.1258567772
 20
-804.3078432882
 10
1946.6933594427
 20
-804.3078432882
 10
1948.2215615436
 20
-804.5092024875
 10
1949.6338326456
 20
-804.9018238949
 10
1950.8593555783
 20
-805.4660198337
 10
1951.8366775045
 20
-806.1734991636
 10
1952.5167914221
 20
-806.9887859169
 10
1952.8655935792
 20
-807.8709982114
 10
1952.8655935792
 20
-808.7758982388
 10
1952.5167914221
 20
-809.6581105333
 10
1951.8366775045
 20
-810.4733972865
 10
1950.8593555783
 20
-811.1808766164
 10
1949.6338326456
 20
-811.7450725552
 10
1948.2215615436
 20
-812.1376939627
 10
1946.6933594427
 20
-812.3390531619
 10
1945.1258567772
 20
-812.3390531619
 10
1943.5976546763
 20
-812.1376939627
 10
1942.1853835743
 20
-811.7450725552
 10
1940.9598606416
 20
-811.1808766164
  0
LWPOLYLINE
  5
122
330
1F
100
AcDbEntity
  8
0
  6
Continuous
 62
     7
370
    25
100
AcDbPolyline
 90
       24
 70
   128
 43
0.0
 10
1942.374074204
 20
-810.3644685046
 10
1941.5513057598
 20
-809.7381212548
 10
1941.051772663
 20
-809.006854178
 10
1940.9125229981
 20
-808.2249020081
 10
1941.1438842759
 20
-807.4502585603
 10
1941.7286974887
 20
-806.7403755954
 10
1942.6235897159
 20
-806.1479018853
 10
1943.7621908948
 20
-805.7167784947
 10
1945.0600561848
 20
-805.4789798734
 10
1946.4209288547
 20
-805.4521424571
 10
1947.743879204
 20
-805.6382566543
 10
1948.9307900576
 20
-806.0235192263
 10
1949.893633667
 20
-806.5793570107
 10
1950.5610003266
 20
-807.2645460618
 10
1950.8833945042
 20
-808.0282690422
 10
1950.8369056985
 20
-808.8138841122
 10
1950.4249817716
 20
-809.5631257961
 10
1949.6781732366
 20
-810.2204262657
 10
1948.6518674662
 20
-810.7370365521
 10
1947.4221808644
 20
-811.0746420337
 10
1946.0803136609
 20
-811.2082040564
 10
1944.7257860076
 20
-811.1278169359
 10
1943.4590570241
 20
-810.8394426174
 10
1942.374074204
 20
-810.3644685046
  0
SPLINE
  5
123
330
1F
100
AcDbEntity
  8
0
  6
Continuous
 62
     7
370
    25
100
AcDbSpline
210
0.0
220
0.0
230
1.0
 70
     8
 71
     3
 72
    15
 73
    11
 74
     0
 42
0.00000001
 43
0.00000001
 40
0.0
 40
0.0
 40
0.0
 40
0.0
 40
0.0188205977724098
 40
0.1640799948192467
 40
0.3092746165549788
 40
0.4545058992978185
 40
0.5998602451794304
 40
0.7453925816144835
 40
0.8911053698254534
 40
1.0
 40
1.0
 40
1.0
 40
1.0
 10
1941.297050785555
 20
-809.4258742132746
 30
0.0
 10
1941.314144783115
 20
-809.3839543733989
 30
0.0
 10
1941.463172091658
 20
-809.0184927024791
 30
0.0
 10
1942.252302761205
 20
-808.4592440024383
 30
0.0
 10
1943.579894200937
 20
-807.8784314473601
 30
0.0
 10
1945.220620237596
 20
-807.6255335053877
 30
0.0
 10
1946.929750240022
 20
-807.7142941743223
 30
0.0
 10
1948.512226468747
 20
-808.1469260642101
 30
0.0
 10
1949.74938640625
 20
-808.7941553830053
 30
0.0
 10
1950.19151042151
 20
-809.346866243126
 30
0.0
 10
1950.38060519117
 20
-809.5832585882034
 30
0.0
  0
LWPOLYLINE
  5
124
330
1F
100
AcDbEntity
  8
0
  6
Continuous
 62
     7
370
    25
100
AcDbPolyline
 90
       29
 70
   128
 43
0.0
 10
1901.3618808952
 20
-776.8917359199
 10
1902.3392028215
 20
-777.5992152498
 10
1903.019316739
 20
-778.4145020031
 10
1903.3681188961
 20
-779.2967142976
 10
1903.3681188961
 20
-780.201614325
 10
1903.019316739
 20
-781.0838266195
 10
1902.3392028215
 20
-781.8991133727
 10
1901.3618808952
 20
-782.6065927027
 10
1900.1363579625
 20
-783.1707886415
 10
1898.7240868606
 20
-783.5634100489
 10
1897.1958847596
 20
-783.7647692481
 10
1895.6283820942
 20
-783.7647692481
 10
1894.1001799932
 20
-783.5634100489
 10
1892.6879088913
 20
-783.1707886415
 10
1891.4623859586
 20
-782.6065927027
 10
1890.4850640323
 20
-781.8991133727
 10
1889.8049501147
 20
-781.0838266195
 10
1889.4561479576
 20
-780.201614325
 10
1889.4561479576
 20
-779.2967142976
 10
1889.8049501147
 20
-778.4145020031
 10
1890.4850640323
 20
-777.5992152498
 10
1891.4623859586
 20
-776.8917359199
 10
1892.6879088913
 20
-776.3275399811
 10
1894.1001799932
 20
-775.9349185737
 10
1895.6283820942
 20
-775.7335593744
 10
1897.1958847596
 20
-775.7335593744
 10
1898.7240868606
 20
-775.9349185737
 10
1900.1363579625
 20
-776.3275399811
 10
1901.3618808952
 20
-776.8917359199
  0
LWPOLYLINE
  5
125
330
1F
100
AcDbEntity
  8
0
  6
Continuous
 62
     7
370
    25
100
AcDbPolyline
 90
       24
 70
   128
 43
0.0
 10
1899.9476673328
 20
-777.7081440317
 10
1900.7704357771
 20
-778.3344912816
 10
1901.2699688739
 20
-779.0657583583
 10
1901.4092185387
 20
-779.8477105282
 10
1901.177857261
 20
-780.622353976
 10
1900.5930440482
 20
-781.332236941
 10
1899.698151821
 20
-781.9247106511
 10
1898.559550642
 20
-782.3558340416
 10
1897.261685352
 20
-782.593632663
 10
1895.9008126822
 20
-782.6204700792
 10
1894.5778623328
 20
-782.4343558821
 10
1893.3909514793
 20
-782.04909331
 10
1892.4281078698
 20
-781.4932555256
 10
1891.7607412102
 20
-780.8080664745
 10
1891.4383470326
 20
-780.0443434941
 10
1891.4848358383
 20
-779.2587284241
 10
1891.8967597653
 20
-778.5094867402
 10
1892.6435683003
 20
-777.8521862707
 10
1893.6698740706
 20
-777.3355759843
 10
1894.8995606725
 20
-776.9979705027
 10
1896.241427876
 20
-776.86440848
 10
1897.5959555292
 20
-776.9447956004
 10
1898.8626845128
 20
-777.233169919
 10
1899.9476673328
 20
-777.7081440317
  0
SPLINE
  5
126
330
1F
100
AcDbEntity
  8
0
  6
Continuous
 62
     7
370
    25
100
AcDbSpline
210
0.0
220
0.0
230
1.0
 70
     8
 71
     3
 72
    15
 73
    11
 74
     0
 42
0.00000001
 43
0.00000001
 40
0.0
 40
0.0
 40
0.0
 40
0.0
 40
0.07704196144772
 40
0.2264392091004267
 40
0.3756836007679806
 40
0.5249973427240028
 40
0.6745540258372991
 40
0.8243855997228962
 40
0.9743860856788404
 40
1.0
 40
1.0
 40
1.0
 40
1.0
 10
1892.040775963493
 20
-781.0350333729881
 30
0.0
 10
1892.163205609419
 20
-780.8899957271592
 30
0.0
 10
1892.523046813783
 20
-780.4637058301455
 30
0.0
 10
1893.636359794821
 20
-779.9216758331536
 30
0.0
 10
1895.182521644529
 20
-779.4980544032802
 30
0.0
 10
1896.888187819165
 20
-779.3761856566593
 30
0.0
 10
1898.547764573652
 20
-779.5602089455348
 30
0.0
 10
1899.922177388215
 20
-780.0479219203816
 30
0.0
 10
1900.761182224272
 20
-780.5442713519379
 30
0.0
 10
1900.939228093312
 20
-780.8834149218586
 30
0.0
 10
1900.965196645023
 20
-780.9328800814856
 30
0.0
  0
LWPOLYLINE
  5
127
330
1F
100
AcDbEntity
  8
0
  6
Continuous
 62
     1
370
    25
100
AcDbPolyline
 90
      122
 70
   128
 43
0.0
 10
1399.2004501501
 20
-886.8726740355
 10
1407.3831064432
 20
-882.3923326771
 10
1415.7974204725
 20
-878.2679362569
 10
1424.4124583592
 20
-874.5168424642
 10
1433.2223157867
 20
-871.1416221112
 10
1442.2209549188
 20
-868.1445884053
 10
1451.4022085376
 20
-865.5277953638
 10
1460.7597842706
 20
-863.2930364059
 10
1470.2872689028
 20
-861.4418431238
 10
1479.9781327722
 20
-859.9754842328
 10
1489.8257342446
 20
-858.8949647022
 10
1499.823324266
 20
-858.2010250659
 10
1509.9640509876
 20
-857.8941409157
 10
1520.2409644617
 20
-857.9745225745
 10
1530.6470214052
 20
-858.4421149528
 10
1541.1750900266
 20
-859.2965975861
 10
1551.8179549134
 20
-860.5373848547
 10
1562.5683219777
 20
-862.163626385
 10
1573.4188234549
 20
-864.1742076323
 10
1584.3620229533
 20
-866.5677506446
 10
1595.3904205506
 20
-869.3426150071
 10
1606.4964579339
 20
-872.4968989663
 10
1617.6725235799
 20
-876.0284407337
 10
1628.9109579716
 20
-879.9348199669
 10
1640.2040588473
 20
-884.2133594286
 10
1651.5440864799
 20
-888.8611268217
 10
1662.9232689809
 20
-893.8749367986
 10
1674.3338076268
 20
-899.2513531443
 10
1685.7678822047
 20
-904.9866911316
 10
1697.2176563708
 20
-911.0770200464
 10
1708.6752830219
 20
-917.5181658814
 10
1720.1329096729
 20
-924.3057141971
 10
1731.582683839
 20
-931.4350131468
 10
1743.0167584169
 20
-938.9011766652
 10
1754.4272970629
 20
-946.6990878167
 10
1765.8064795638
 20
-954.8234023026
 10
1777.1465071964
 20
-963.2685521235
 10
1788.4396080721
 20
-972.0287493955
 10
1799.6780424638
 20
-981.0979903172
 10
1810.8541081099
 20
-990.4700592836
 10
1821.9601454931
 20
-1000.138533147
 10
1832.9885430904
 20
-1010.0967856183
 10
1843.9317425888
 20
-1020.3379918086
 10
1854.782244066
 20
-1030.8551329069
 10
1865.5326111303
 20
-1041.6410009898
 10
1876.1754760171
 20
-1052.6882039623
 10
1886.7035446385
 20
-1063.9891706232
 10
1897.109601582
 20
-1075.5361558545
 10
1907.3865150562
 20
-1087.3212459293
 10
1917.5272417777
 20
-1099.3363639354
 10
1927.5248317991
 20
-1111.5732753113
 10
1937.3724332715
 20
-1124.0235934891
 10
1947.0632971409
 20
-1136.6787856425
 10
1956.5907817731
 20
-1149.5301785352
 10
1965.9483575061
 20
-1162.5689644642
 10
1975.1296111249
 20
-1175.7862072971
 10
1984.128250257
 20
-1189.1728485959
 10
1992.9381076845
 20
-1202.7197138251
 10
2001.5531455712
 20
-1216.4175186402
 10
2009.9674596005
 20
-1230.2568752498
 10
2018.1752830219
 20
-1244.2282988504
 10
2026.1709906031
 20
-1258.322214126
 10
2033.9491024856
 20
-1272.528961811
 10
2041.50428794
 20
-1286.8388053104
 10
2048.8313690197
 20
-1301.2419373721
 10
2055.9253241092
 20
-1315.7284868088
 10
2062.781291366
 20
-1330.2885252633
 10
2069.3945720527
 20
-1344.9120740124
 10
2075.7606337571
 20
-1359.5891108064
 10
2081.8751134983
 20
-1374.3095767372
 10
2087.7338207176
 20
-1389.0633831329
 10
2093.3327401494
 20
-1403.8404184715
 10
2098.6680345743
 20
-1418.6305553112
 10
2103.7360474477
 20
-1433.4236572309
 10
2108.533305407
 20
-1448.2095857775
 10
2113.0565206511
 20
-1462.9782074142
 10
2117.3025931942
 20
-1477.7194004654
 10
2121.2686129903
 20
-1492.4230620537
 10
2124.9518619275
 20
-1507.0791150239
 10
2128.3498156911
 20
-1521.6775148495
 10
2131.4601454931
 20
-1536.2082565163
 10
2134.280719669
 20
-1550.6613813799
 10
2136.8096051381
 20
-1565.0269839904
 10
2139.0450687286
 20
-1579.2952188814
 10
2140.9855783654
 20
-1593.4563073174
 10
2142.6298041202
 20
-1607.5005439957
 10
2143.9766191227
 20
-1621.4183036981
 10
2145.0251003333
 20
-1635.2000478873
 10
2145.7745291752
 20
-1648.8363312442
 10
2146.2243920274
 20
-1662.3178081413
 10
2146.3743805763
 20
-1675.6352390478
 10
2146.2243920274
 20
-1688.7794968618
 10
2145.7745291752
 20
-1701.7415731656
 10
2145.0251003333
 20
-1714.5125843994
 10
2143.9766191227
 20
-1727.0837779502
 10
2142.6298041202
 20
-1739.4465381498
 10
2140.9855783654
 20
-1751.5923921799
 10
2139.0450687286
 20
-1763.5130158788
 10
2136.8096051381
 20
-1775.2002394466
 10
2134.280719669
 20
-1786.646053044
 10
2131.4601454931
 20
-1797.842612282
 10
2128.3498156911
 20
-1808.7822435983
 10
2124.9518619275
 20
-1819.457449516
 10
2121.2686129903
 20
-1829.8609137822
 10
2117.3025931942
 20
-1839.9855063821
 10
2113.0565206511
 20
-1849.8242884258
 10
2108.533305407
 20
-1859.3705169034
 10
2103.7360474477
 20
-1868.6176493068
 10
2098.6680345743
 20
-1877.5593481134
 10
2093.3327401494
 20
-1886.1894851295
 10
2087.7338207176
 20
-1894.5021456902
 10
2081.8751134983
 20
-1902.4916327132
 10
2075.7606337571
 20
-1910.1524706031
 10
2069.3945720527
 20
-1917.4794090045
 10
2062.781291366
 20
-1924.4674263996
 10
2055.9253241092
 20
-1931.1117335504
 10
2048.8313690197
 20
-1937.4077767806
 10
2041.50428794
 20
-1943.3512410969
 10
2033.9491024856
 20
-1948.9380531455
 10
2026.1709906031
 20
-1954.1643840045
 10
2018.1752830219
 20
-1959.026651808
 10
2018.1500901375
 20
-1959.0411977106
  0
LWPOLYLINE
  5
128
330
1F
100
AcDbEntity
  8
0
  6
Continuous
 62
     1
370
    25
100
AcDbPolyline
 90
      122
 70
   128
 43
0.0
 10
1416.8781048007
 20
-876.6675812273
 10
1425.0607759729
 20
-872.1872312793
 10
1433.4750900022
 20
-868.0628348592
 10
1442.0901278889
 20
-864.3117410664
 10
1450.8999853164
 20
-860.9365207134
 10
1459.8986244484
 20
-857.9394870075
 10
1469.0798780673
 20
-855.322693966
 10
1478.4374538003
 20
-853.0879350081
 10
1487.9649384325
 20
-851.236741726
 10
1497.6558023018
 20
-849.770382835
 10
1507.5034037743
 20
-848.6898633044
 10
1517.5009937957
 20
-847.9959236681
 10
1527.6417205172
 20
-847.6890395179
 10
1537.9186339913
 20
-847.7694211767
 10
1548.3246909349
 20
-848.237013555
 10
1558.8527595563
 20
-849.0914961883
 10
1569.4956244431
 20
-850.3322834569
 10
1580.2459915074
 20
-851.9585249872
 10
1591.0964929846
 20
-853.9691062345
 10
1602.039692483
 20
-856.3626492468
 10
1613.0680900802
 20
-859.1375136093
 10
1624.1741274635
 20
-862.2917975686
 10
1635.3501931096
 20
-865.8233393359
 10
1646.5886275012
 20
-869.7297185691
 10
1657.881728377
 20
-874.0082580308
 10
1669.2217560096
 20
-878.656025424
 10
1680.6009385105
 20
-883.6698354008
 10
1692.0114771565
 20
-889.0462517465
 10
1703.4455517343
 20
-894.7815897338
 10
1714.8953259004
 20
-900.8719186486
 10
1726.3529525515
 20
-907.3130644836
 10
1737.8105792026
 20
-914.1006127993
 10
1749.2603533687
 20
-921.229911749
 10
1760.6944279465
 20
-928.6960752674
 10
1772.1049665925
 20
-936.4939864189
 10
1783.4841490935
 20
-944.6183009048
 10
1794.8241767261
 20
-953.0634507257
 10
1806.1172776018
 20
-961.8236479977
 10
1817.3557119935
 20
-970.8928889194
 10
1828.5317776395
 20
-980.2649578858
 10
1839.6378150228
 20
-989.9334317492
 10
1850.6662126201
 20
-999.8916842205
 10
1861.6094121184
 20
-1010.1328904108
 10
1872.4599135956
 20
-1020.6500315091
 10
1883.21028066
 20
-1031.435899592
 10
1893.8531455468
 20
-1042.4831025645
 10
1904.3812141681
 20
-1053.7840692254
 10
1914.7872711117
 20
-1065.3310544567
 10
1925.0641845858
 20
-1077.1161445315
 10
1935.2049113074
 20
-1089.1312625376
 10
1945.2025013288
 20
-1101.3681739135
 10
1955.0501028012
 20
-1113.8184920913
 10
1964.7409666705
 20
-1126.4736842448
 10
1974.2684513027
 20
-1139.3250771374
 10
1983.6260270358
 20
-1152.3638630665
 10
1992.8072806546
 20
-1165.5811058994
 10
2001.8059197867
 20
-1178.9677471981
 10
2010.6157772142
 20
-1192.5146124273
 10
2019.2308151009
 20
-1206.2124172424
 10
2027.6451291302
 20
-1220.0517738521
 10
2035.8529525515
 20
-1234.0231974526
 10
2043.8486601327
 20
-1248.1171127282
 10
2051.6267720153
 20
-1262.3238604132
 10
2059.1819574697
 20
-1276.6337039126
 10
2066.5090385493
 20
-1291.0368359743
 10
2073.6029936388
 20
-1305.523385411
 10
2080.4589608957
 20
-1320.0834238655
 10
2087.0722415824
 20
-1334.7069726147
 10
2093.4383032867
 20
-1349.3840094086
 10
2099.552783028
 20
-1364.1044753394
 10
2105.4114902472
 20
-1378.8582817351
 10
2111.0104096791
 20
-1393.6353170738
 10
2116.3457041039
 20
-1408.4254539134
 10
2121.4137169774
 20
-1423.2185558331
 10
2126.2109749367
 20
-1438.0044843798
 10
2130.7341901808
 20
-1452.7731060164
 10
2134.9802627239
 20
-1467.5142990676
 10
2138.94628252
 20
-1482.2179606559
 10
2142.6295314572
 20
-1496.8740136261
 10
2146.0274852208
 20
-1511.4724134517
 10
2149.1378150228
 20
-1526.0031551185
 10
2151.9583891987
 20
-1540.4562799821
 10
2154.4872746678
 20
-1554.8218825926
 10
2156.7227382583
 20
-1569.0901174836
 10
2158.6632478951
 20
-1583.2512059196
 10
2160.3074736499
 20
-1597.2954425979
 10
2161.6542886524
 20
-1611.2132023003
 10
2162.7027698629
 20
-1624.9949464895
 10
2163.4521987048
 20
-1638.6312298464
 10
2163.902061557
 20
-1652.1127067435
 10
2164.052050106
 20
-1665.43013765
 10
2163.902061557
 20
-1678.574395464
 10
2163.4521987048
 20
-1691.5364717678
 10
2162.7027698629
 20
-1704.3074830016
 10
2161.6542886524
 20
-1716.8786765524
 10
2160.3074736499
 20
-1729.241436752
 10
2158.6632478951
 20
-1741.3872907821
 10
2156.7227382583
 20
-1753.307914481
 10
2154.4872746678
 20
-1764.9951380488
 10
2151.9583891987
 20
-1776.4409516462
 10
2149.1378150228
 20
-1787.6375108842
 10
2146.0274852207
 20
-1798.5771422005
 10
2142.6295314572
 20
-1809.2523481182
 10
2138.94628252
 20
-1819.6558123844
 10
2134.9802627239
 20
-1829.7804049843
 10
2130.7341901808
 20
-1839.619187028
 10
2126.2109749367
 20
-1849.1654155056
 10
2121.4137169774
 20
-1858.4125479091
 10
2116.3457041039
 20
-1867.3542467157
 10
2111.0104096791
 20
-1875.9843837317
 10
2105.4114902472
 20
-1884.2970442924
 10
2099.552783028
 20
-1892.2865313154
 10
2093.4383032867
 20
-1899.9473692054
 10
2087.0722415824
 20
-1907.2743076067
 10
2080.4589608957
 20
-1914.2623250018
 10
2073.6029936388
 20
-1920.9066321526
 10
2066.5090385493
 20
-1927.2026753829
 10
2059.1819574697
 20
-1933.1461396991
 10
2051.6267720153
 20
-1938.7329517477
 10
2043.8486601327
 20
-1943.9592826068
 10
2035.8529525515
 20
-1948.8215504102
 10
2035.8278003024
 20
-1948.8360728546
  0
ENDSEC
  0
SECTION
  2
OBJECTS
  0
DICTIONARY
  5
C
330
0
100
AcDbDictionary
281
     1
  3
ACAD_GROUP
350
D
  3
ACAD_LAYOUT
350
1A
  3
ACAD_MLINESTYLE
350
17
  3
ACAD_PLOTSETTINGS
350
19
  3
ACAD_PLOTSTYLENAME
350
E
  3
ACAD_SCALELIST
350
47
  3
DWGPROPS
350
129
  0
DICTIONARY
  5
D
102
{ACAD_REACTORS
330
C
102
}
330
C
100
AcDbDictionary
281
     1
  0
DICTIONARY
  5
1A
102
{ACAD_REACTORS
330
C
102
}
330
C
100
AcDbDictionary
281
     1
  3
Layout1
350
1E
  3
Layout2
350
26
  3
Model
350
22
  0
DICTIONARY
  5
17
102
{ACAD_REACTORS
330
C
102
}
330
C
100
AcDbDictionary
281
     1
  3
Standard
350
18
  0
DICTIONARY
  5
19
102
{ACAD_REACTORS
330
C
102
}
330
C
100
AcDbDictionary
281
     1
  0
ACDBDICTIONARYWDFLT
  5
E
102
{ACAD_REACTORS
330
C
102
}
330
C
100
AcDbDictionary
281
     1
  3
Normal
350
F
100
AcDbDictionaryWithDefault
340
F
  0
DICTIONARY
  5
47
102
{ACAD_REACTORS
330
C
102
}
330
C
100
AcDbDictionary
281
     1
  3
A0
350
48
  3
A1
350
49
  3
A2
350
4A
  3
A3
350
4B
  3
A4
350
4C
  3
A5
350
4D
  3
A6
350
4E
  3
A7
350
4F
  3
A8
350
50
  3
A9
350
51
  3
B0
350
52
  3
B1
350
53
  3
B2
350
54
  3
B3
350
55
  3
B4
350
56
  3
B5
350
57
  3
B6
350
58
  3
B7
350
59
  3
B8
350
5A
  3
B9
350
5B
  3
C0
350
5C
  3
C1
350
5D
  3
C2
350
5E
  3
C3
350
5F
  3
C4
350
60
  3
C5
350
61
  3
C6
350
62
  3
C7
350
63
  3
C8
350
64
  3
C9
350
65
  3
D0
350
66
  3
D1
350
67
  3
D2
350
68
  0
XRECORD
  5
129
102
{ACAD_REACTORS
330
C
102
}
330
C
100
AcDbXrecord
280
     1
  1
DWGPROPS COOKIE
  2

  3

  4

  6

  7

  8
b.kav
  9

300
=
301
=
302
=
303
=
304
=
305
=
306
=
307
=
308
=
309
=
 40
0.0
 41
2459935.585546759
 42
2459935.585546933
  1

 90
        0
  0
LAYOUT
  5
1E
102
{ACAD_REACTORS
330
1A
102
}
330
1A
100
AcDbPlotSettings
  1

  2
none_device
  4

  6

 40
0.0
 41
0.0
 42
0.0
 43
0.0
 44
0.0
 45
0.0
 46
0.0
 47
0.0
 48
0.0
 49
0.0
140
0.0
141
0.0
142
1.0
143
1.0
 70
   688
 72
     1
 73
     0
 74
     5
  7

 75
    16
147
1.0
148
0.0
149
0.0
100
AcDbLayout
  1
Layout1
 70
     1
 71
     1
 10
0.0
 20
0.0
 11
420.0
 21
297.0
 12
0.0
 22
0.0
 32
0.0
 14
1.0000000000E+20
 24
1.0000000000E+20
 34
1.0000000000E+20
 15
-1.0000000000E+20
 25
-1.0000000000E+20
 35
-1.0000000000E+20
146
0.0
 13
0.0
 23
0.0
 33
0.0
 16
1.0
 26
0.0
 36
0.0
 17
0.0
 27
1.0
 37
0.0
 76
     0
330
1B
  0
LAYOUT
  5
26
102
{ACAD_REACTORS
330
1A
102
}
330
1A
100
AcDbPlotSettings
  1

  2
none_device
  4

  6

 40
0.0
 41
0.0
 42
0.0
 43
0.0
 44
0.0
 45
0.0
 46
0.0
 47
0.0
 48
0.0
 49
0.0
140
0.0
141
0.0
142
1.0
143
1.0
 70
   688
 72
     1
 73
     0
 74
     5
  7

 75
    16
147
1.0
148
0.0
149
0.0
100
AcDbLayout
  1
Layout2
 70
     1
 71
     2
 10
0.0
 20
0.0
 11
0.0
 21
0.0
 12
0.0
 22
0.0
 32
0.0
 14
0.0
 24
0.0
 34
0.0
 15
0.0
 25
0.0
 35
0.0
146
0.0
 13
0.0
 23
0.0
 33
0.0
 16
1.0
 26
0.0
 36
0.0
 17
0.0
 27
1.0
 37
0.0
 76
     0
330
23
  0
LAYOUT
  5
22
102
{ACAD_REACTORS
330
1A
102
}
330
1A
100
AcDbPlotSettings
  1

  2
none_device
  4
Letter_(8.50_x_11.00_Inches)
  6

 40
6.35
 41
6.35
 42
6.35000508
 43
6.35000508
 44
215.9
 45
279.4
 46
0.0
 47
0.0
 48
0.0
 49
0.0
140
0.0
141
0.0
142
1.0
143
1.0
 70
  1712
 72
     1
 73
     0
 74
     0
  7

 75
     0
147
1.0
148
0.0
149
0.0
100
AcDbLayout
  1
Model
 70
     1
 71
     0
 10
0.0
 20
0.0
 11
279.4
 21
215.9
 12
0.0
 22
0.0
 32
0.0
 14
0.0
 24
0.0
 34
0.0
 15
279.4
 25
215.9
 35
0.0
146
0.0
 13
0.0
 23
0.0
 33
0.0
 16
1.0
 26
0.0
 36
0.0
 17
0.0
 27
1.0
 37
0.0
 76
     0
330
1F
331
29
  0
MLINESTYLE
  5
18
102
{ACAD_REACTORS
330
17
102
}
330
17
100
AcDbMlineStyle
  2
Standard
 70
     0
  3

 62
   256
 51
90.0
 52
90.0
 71
     2
 49
0.5
 62
   256
  6
BYLAYER
 49
-0.5
 62
   256
  6
BYLAYER
  0
ACDBPLACEHOLDER
  5
F
102
{ACAD_REACTORS
330
E
102
}
330
E
  0
SCALE
  5
48
102
{ACAD_REACTORS
330
47
102
}
330
47
100
AcDbScale
 70
     0
300
1:1
140
1.0
141
1.0
290
     1
  0
SCALE
  5
49
102
{ACAD_REACTORS
330
47
102
}
330
47
100
AcDbScale
 70
     0
300
1:2
140
1.0
141
2.0
290
     0
  0
SCALE
  5
4A
102
{ACAD_REACTORS
330
47
102
}
330
47
100
AcDbScale
 70
     0
300
1:4
140
1.0
141
4.0
290
     0
  0
SCALE
  5
4B
102
{ACAD_REACTORS
330
47
102
}
330
47
100
AcDbScale
 70
     0
300
1:5
140
1.0
141
5.0
290
     0
  0
SCALE
  5
4C
102
{ACAD_REACTORS
330
47
102
}
330
47
100
AcDbScale
 70
     0
300
1:8
140
1.0
141
8.0
290
     0
  0
SCALE
  5
4D
102
{ACAD_REACTORS
330
47
102
}
330
47
100
AcDbScale
 70
     0
300
1:10
140
1.0
141
10.0
290
     0
  0
SCALE
  5
4E
102
{ACAD_REACTORS
330
47
102
}
330
47
100
AcDbScale
 70
     0
300
1:16
140
1.0
141
16.0
290
     0
  0
SCALE
  5
4F
102
{ACAD_REACTORS
330
47
102
}
330
47
100
AcDbScale
 70
     0
300
1:20
140
1.0
141
20.0
290
     0
  0
SCALE
  5
50
102
{ACAD_REACTORS
330
47
102
}
330
47
100
AcDbScale
 70
     0
300
1:30
140
1.0
141
30.0
290
     0
  0
SCALE
  5
51
102
{ACAD_REACTORS
330
47
102
}
330
47
100
AcDbScale
 70
     0
300
1:40
140
1.0
141
40.0
290
     0
  0
SCALE
  5
52
102
{ACAD_REACTORS
330
47
102
}
330
47
100
AcDbScale
 70
     0
300
1:50
140
1.0
141
50.0
290
     0
  0
SCALE
  5
53
102
{ACAD_REACTORS
330
47
102
}
330
47
100
AcDbScale
 70
     0
300
1:100
140
1.0
141
100.0
290
     0
  0
SCALE
  5
54
102
{ACAD_REACTORS
330
47
102
}
330
47
100
AcDbScale
 70
     0
300
2:1
140
2.0
141
1.0
290
     0
  0
SCALE
  5
55
102
{ACAD_REACTORS
330
47
102
}
330
47
100
AcDbScale
 70
     0
300
4:1
140
4.0
141
1.0
290
     0
  0
SCALE
  5
56
102
{ACAD_REACTORS
330
47
102
}
330
47
100
AcDbScale
 70
     0
300
8:1
140
8.0
141
1.0
290
     0
  0
SCALE
  5
57
102
{ACAD_REACTORS
330
47
102
}
330
47
100
AcDbScale
 70
     0
300
10:1
140
10.0
141
1.0
290
     0
  0
SCALE
  5
58
102
{ACAD_REACTORS
330
47
102
}
330
47
100
AcDbScale
 70
     0
300
100:1
140
100.0
141
1.0
290
     0
  0
SCALE
  5
59
102
{ACAD_REACTORS
330
47
102
}
330
47
100
AcDbScale
 70
     0
300
1/128" = 1'-0"
140
0.0078125
141
12.0
290
     0
  0
SCALE
  5
5A
102
{ACAD_REACTORS
330
47
102
}
330
47
100
AcDbScale
 70
     0
300
1/64" = 1'-0"
140
0.015625
141
12.0
290
     0
  0
SCALE
  5
5B
102
{ACAD_REACTORS
330
47
102
}
330
47
100
AcDbScale
 70
     0
300
1/32" = 1'-0"
140
0.03125
141
12.0
290
     0
  0
SCALE
  5
5C
102
{ACAD_REACTORS
330
47
102
}
330
47
100
AcDbScale
 70
     0
300
1/16" = 1'-0"
140
0.0625
141
12.0
290
     0
  0
SCALE
  5
5D
102
{ACAD_REACTORS
330
47
102
}
330
47
100
AcDbScale
 70
     0
300
3/32" = 1'-0"
140
0.09375
141
12.0
290
     0
  0
SCALE
  5
5E
102
{ACAD_REACTORS
330
47
102
}
330
47
100
AcDbScale
 70
     0
300
1/8" = 1'-0"
140
0.125
141
12.0
290
     0
  0
SCALE
  5
5F
102
{ACAD_REACTORS
330
47
102
}
330
47
100
AcDbScale
 70
     0
300
3/16" = 1'-0"
140
0.1875
141
12.0
290
     0
  0
SCALE
  5
60
102
{ACAD_REACTORS
330
47
102
}
330
47
100
AcDbScale
 70
     0
300
1/4" = 1'-0"
140
0.25
141
12.0
290
     0
  0
SCALE
  5
61
102
{ACAD_REACTORS
330
47
102
}
330
47
100
AcDbScale
 70
     0
300
3/8" = 1'-0"
140
0.375
141
12.0
290
     0
  0
SCALE
  5
62
102
{ACAD_REACTORS
330
47
102
}
330
47
100
AcDbScale
 70
     0
300
1/2" = 1'-0"
140
0.5
141
12.0
290
     0
  0
SCALE
  5
63
102
{ACAD_REACTORS
330
47
102
}
330
47
100
AcDbScale
 70
     0
300
3/4" = 1'-0"
140
0.75
141
12.0
290
     0
  0
SCALE
  5
64
102
{ACAD_REACTORS
330
47
102
}
330
47
100
AcDbScale
 70
     0
300
1" = 1'-0"
140
1.0
141
12.0
290
     0
  0
SCALE
  5
65
102
{ACAD_REACTORS
330
47
102
}
330
47
100
AcDbScale
 70
     0
300
1-1/2" = 1'-0"
140
1.5
141
12.0
290
     0
  0
SCALE
  5
66
102
{ACAD_REACTORS
330
47
102
}
330
47
100
AcDbScale
 70
     0
300
3" = 1'-0"
140
3.0
141
12.0
290
     0
  0
SCALE
  5
67
102
{ACAD_REACTORS
330
47
102
}
330
47
100
AcDbScale
 70
     0
300
6" = 1'-0"
140
6.0
141
12.0
290
     0
  0
SCALE
  5
68
102
{ACAD_REACTORS
330
47
102
}
330
47
100
AcDbScale
 70
     0
300
1'-0" = 1'-0"
140
12.0
141
12.0
290
     0
  0
ENDSEC
  0
EOF
